Oops, an error
Loading. Please wait.

1000 Points Of Hate Tab

ver1
ver1

Whole song

Interactive

More versions @911Tabs.com
1,491 views 3 this week
no commentswrite comment
1 2 3 4 5
excellent!
x 1
Autoscroll
+/-
esc
set tempo
stop
Contributor
Tuning
D# G# C# F# A# D#
WARNING: You are trying to view
                                    content from Ultimate-Guitar.com
                                    in an unauthorized application,
                                    which is prohibited.

                                    Please use an official Ultimate
                                    Guitar Tabs application for iPhone,
                                    iPad or Android to access legitimate
                                    chords, guitar, bass, and drum tabs
                                    from Ultimate-Guitar.com database.

                                    Type "ultimate guitar tabs" in Apple
                                    App Store's or Android Market's
                                    search to find the application.
#----------------------------------PLEASE NOTE---------------------------------#
#This file is the author's own work and represents their interpretation of the #
#song. You may only use this file for private study, scholarship, or research. #
#------------------------------------------------------------------------------#

1000 POINTS OF HATE
As recorded by Anthrax
(From the 1993 Album SOUND OF WHITE NOISE)

Transcribed by Mike Sheehan
	

Words and Music by Charlie Benante, Scott Ian & John Bush

E5
0 2 2 x x x
	
F5
1 3 x x x x
	
F#5
2 4 x x x x
	
G5
3 5 x x x x

C
x 3 x 5 x x
	
D
x 5 x 7 x x
	
Eb
x 6 x 8 x x
	
E
x 7 x 9 x x

F
x 8 x 10 x x
	
F#
x 9 x 11 x x
	
G
x 10 x 12 x x
	
E5/B
x 2 2 x x x

Gtr I (Eb Ab Db Gb Bb Eb) - 'Scott Ian'
Gtr II (Eb Ab Db Gb Bb Eb) - 'Dan Spitz'

 Intro
  Q=200
  G                                                 N.C.
 4/4
  Gtrs I, II
                                                    PM|
   W           +W            +W            +H.      E E
|-----------|-------------|-------------|---------------|
|-----------|-------------|-------------|---------------|
|-12--------|-(12)--------|-(12)--------|-(12)----------|
|--x--------|-------------|-------------|---------------|
|-10--------|-(10)--------|-(10)--------|-(10)----------|
|-----------|-------------|-------------|-----------0-0-|


     F#      F       E            N.C.    G                     N.C.
        PM      PM                PM|                           PM|
   E  E E  E  E E  E E   +H.      E E      W           +H.      E E
|----------------------|--------------||------------|---------------|
|----------------------|--------------||o-----------|---------------|
|-12s11---11s10---10s9-|-(9)----------||--12--------|-(12)----------|
|--x--x----x--x----x-x-|--------------||---x--------|---------------|
|-10s=9----9s=8----8s7-|-(7)----------||o-10--------|-(10)----------|
|-------0-------0------|----------0-0-||------------|-----------0-0-|


     F#      F       E            N.C.      Eb    D     C            N.C.
        PM      PM                PM|         PM    PM               PM|
   E  E E  E  E E  E E   +H.      E E  5x E E E E E E E E   +H.      E E
|----------------------|---------------||-----------------|--------------|
|----------------------|--------------o||-----------------|--------------|
|-12s11---11s10---10s9-|-(9)-----------||-9s8---8s7---7s5-|-(5)----------|
|--x--x----x--x----x-x-|---------------||-x-x---x-x---x-x-|--------------|
|-10s=9----9s=8----8s7-|-(7)----------o||-7s6---6s5---5s3-|-(3)----------|
|-------0-------0------|----------0-0--||-----0-----0-----|----------0-0-|


  G5F#5    F5     E5
                       \1
  E  E E E  E E E E   +W           +W
|-------------------|------------|--------||
|-------------------|------------|--------||
|-------------------|------------|--------||
|-------------------|------------|--------||
|-5-\4---4-\3---3-2-|-(2)--------|-(2)----||
|-3-\2---2-\1---1-0-|-(0)--------|-(0)----||


    (E)     E5 (E)       E5 (E) E5   (E)     E5 (E)       E5 (E) E5
    PM----|    PM------|    PM|      PM----|    PM------|    PM|
    E E E E Q  E E   E E Q  E E Q    E E E E Q  E E   E E Q  E E Q
||-----------------|---------------|----------------|-----------------||
||o----------------|---------------|----------------|----------------o||
||-----------------|---------------|----------------|-----------------||
||----------2------|-----2------2--|---------2------|-----2------2----||
||o---------2------|-----2------2--|---------2------|-----2------2---o||
||--0-0-0-0-0--0-0-|-0-0-0--0-0-0--|-0-0-0-0-0--0-0-|-0-0-0--0-0-0----||


   Verse
    (E)     E5 (E)       E5 (E) E5   (E)     E5 (E)       E5 (E) E5
    PM----|    PM------|    PM|      PM----|    PM------|    PM|
    E E E E Q  E E   E E Q  E E Q    E E E E Q  E E   E E Q  E E Q
||-----------------|---------------|----------------|----------------|
||o----------------|---------------|----------------|----------------|
||-----------------|---------------|----------------|----------------|
||----------2------|-----2------2--|---------2------|-----2------2---|
||o---------2------|-----2------2--|---------2------|-----2------2---|
||--0-0-0-0-0--0-0-|-0-0-0--0-0-0--|-0-0-0-0-0--0-0-|-0-0-0--0-0-0---|


  (F#)    E5/(F#)      E5/(F#)E5/B (F)     E5/(F)       E5/(F) F5G5
  PM----|    PM------|    PM|      PM----|    PM------|    PM|
  E E E E Q  E E   E E Q  E E Q    E E E E Q  E E   E E Q  E E E  E
|----------------|---------------|----------------|-----------------|
|----------------|---------------|----------------|-----------------|
|----------------|---------------|----------------|-----------------|
|---------2------|-----2------2--|---------2------|-----2-----------|
|---------2------|-----2------2--|---------2------|-----2------3-/5-|
|-2-2-2-2----2-2-|-2-2----2-2----|-1-1-1-1----1-1-|-1-1----1-1-1-/3-|


  (E)     E5 (E)       E5 (E) E5   (E)     E5 (E)       E5 (E) E5
  PM----|    PM------|    PM|      PM----|    PM------|    PM|
  E E E E Q  E E   E E Q  E E Q    E E E E Q  E E   E E Q  E E Q
|----------------|---------------|----------------|---------------|
|----------------|---------------|----------------|---------------|
|----------------|---------------|----------------|---------------|
|---------2------|-----2------2--|---------2------|-----2------2--|
|---------2------|-----2------2--|---------2------|-----2------2--|
|-0-0-0-0-0--0-0-|-0-0-0--0-0-0--|-0-0-0-0-0--0-0-|-0-0-0--0-0-0--|


  (F#)    E5/(F#)      E5/(F#)E5/B (F)     E5/(F)       E5/F5G5
  PM----|    PM------|    PM|      PM----|    PM------|    PM|
  E E E E Q  E E   E E Q  E E Q    E E E E Q  E E   E E Q  E E E E
|----------------|---------------|----------------|----------------||
|----------------|---------------|----------------|----------------||
|----------------|---------------|----------------|----------------||
|---------2------|-----2------2--|---------2------|-----2----------||
|---------2------|-----2------2--|---------2------|-----2--3-5-5-5-||
|-2-2-2-2----2-2-|-2-2----2-2----|-1-1-1-1----1-1-|-1-1----1-3-3-3-||


 Pre Chorus
    N.C.                      G5        N.C.  E5 N.C.  E5 N.C.  G5
  PM------------------------|           PM--|    PM|      PM|
  E E E E E E E E   E E E E E E E E   E E E E Q  E E   Q  E E E E E E
|-----------------|-----------------|----------------|----------------|
|-----------------|-----------------|----------------|----------------|
|-----------------|-----------------|----------------|----------------|
|-----------------|-----------------|---------2------|-2--------------|
|-5---------------|-----------5-5-5-|-5-------2------|-2--------5-5-5-|
|-3-0-0-0-0-0-0-0-|-0-0-0-0-0-3-3-3-|-3-0-0-0-0--0-0-|-0--0-0-0-3-3-3-|


    F#5                                  F5                       G5
       PM--------------------|              PM|    PM|      PM|
  E  E E E E E E E   E E E E E E E E   E  E E E Q  E E   Q  E E E E E E
|------------------|-----------------|-----------------|----------------|
|------------------|-----------------|-----------------|----------------|
|------------------|-----------------|-----------------|----------------|
|------------------|-----------------|-----------------|----------------|
|-5-\4-4-4-4-4-4-4-|-4-4-4-4-4-4-4-4-|-4-\3-3-3-3--3-3-|-3--3-3-3-5-5-5-|
|-3-\2-2-2-2-2-2-2-|-2-2-2-2-2-2-2-2-|-2-\1-1-1-1--1-1-|-1--1-1-1-3-3-3-|


    N.C.                      G5        N.C.  E5 N.C.  E5 N.C.  G5
      PM--------------------|           PM--|    PM|      PM|
  E E E E E E E E   E E E E E E E E   E E E E Q  E E   Q  E E E E E E
|-----------------|-----------------|----------------|----------------|
|-----------------|-----------------|----------------|----------------|
|-----------------|-----------------|----------------|----------------|
|-----------------|-----------------|---------2------|-2--------------|
|-5---------------|-----------5-5-5-|-5-------2------|-2--------5-5-5-|
|-3-0-0-0-0-0-0-0-|-0-0-0-0-0-3-3-3-|-3-0-0-0-0--0-0-|-0--0-0-0-3-3-3-|


    F#5                                  F5                       N.C.
       PM--------------------|              PM------------------|   PM--|
  E  E E E E E E E   E E E E E E E E   E  E E E E E E E   E E E E E E E E
|------------------|-----------------|------------------|-----------------||
|------------------|-----------------|------------------|-----------------||
|------------------|-----------------|------------------|-----------------||
|------------------|-----------------|------------------|---------5-------||
|-5-\4-4-4-4-4-4-4-|-4-4-4-4-4-4-4-4-|-4-\3-3-3-3-3-3-3-|-3-3-3-3---7-5---||
|-3-\2-2-2-2-2-2-2-|-2-2-2-2-2-2-2-2-|-2-\1-1-1-1-1-1-1-|-1-1-1-1-------7-||


 Chorus
  $
                          PM--------|
  E E +H.        +H     E E E E   E E H.        +H     Q  E E
|--------------|----------------|-------------|---------------|
|--------------|----------------|-------------|---------------|
|--------------|----------------|-------------|---------------|
|--------------|--------5-------|-------------|--------5------|
|-5h7-(7)------|-(7)------7-5---|-5-7---------|-----------7---|
|--------------|--------------7-|-----2-------|-(2)---------7-|


                         PM--------|                    PM--|
  E E H.        +H     E E E E   E E H.        +H     E E E E
|-------------|----------------|-------------|----------------|
|-------------|----------------|-------------|----------------|
|-------------|----------------|-------------|----------------|
|-------------|--------5-------|-------------|--------5-------|
|-5h7---------|----------7-5---|-5-7---------|----------7-5---|
|-----1-------|-(1)----------7-|-----0-------|-(0)----------7-|


                          PM--------|
  E E +H.        +H     E E E E   E E H.        +H     Q  E E
|--------------|----------------|-------------|---------------|
|--------------|----------------|-------------|---------------|
|--------------|----------------|-------------|---------------|
|--------------|--------5-------|-------------|--------5------|
|-5-7-(7)------|-(7)------7-5---|-5-7---------|-----------7---|
|--------------|--------------7-|-----2-------|-(2)---------7-|


                      To Coda
                         PM--------|                    PM--|
  E E H.        +H     E E E E   E E H.        +H     E E E E
|-------------|----------------|-------------|----------------|
|-------------|----------------|-------------|----------------|
|-------------|----------------|-------------|----------------|
|-------------|--------5-------|-------------|--------5-------|
|-5h7---------|----------7-5---|-5-7---------|----------7-5---|
|-----1-------|-(1)----------7-|-----0-------|-(0)----------7-|


  1.                2.
 5/4                4/4
  PM|                PM--------------------------|   PM----------------|
  E E Q  Q  H        E E E E E E E E   E E E E E E E E   E E E E E E E E
|-----------------||-----------------|-----------------|------------------||
|----------------o||-----------------|-----------------|------------------||
|-----------------||-----------------|-----------------|------------------||
|-----------------||-----5-----------|-5---------5-----|------------------||
|-5-7------------o||-5-7---7-5---5-7-|---7-5---5-7-----|------------------||
|-----0-----------||-----------7-----|-------7-------0-|-0-0-0-0-0-0-0-0--||


   Interlude
    E5   G5     N.C.   E5          G5     N.C.
    H    H      E E Q  H      H    H      E E Q  H
||------------|-------------|-----------|-------------|
||o-----------|-------------|-----------|-------------|
||------------|-------------|-----------|-------------|
||------------|-------------|-----------|-------------|
||o-2----5----|-7p5----2----|-2----5----|-7p5---------|
||--0----3----|-----7--0----|-0----3----|-----7--6----|


                                             1.                2.
  E5   G5     N.C.                                                      Bb5
                            PM----------------------|           PM----|
  H    H      E E Q  H      E E E E E E E E   E E E E H         E E E E H
|-----------|-------------|-----------------|----------------||--------------||
|-----------|-------------|-----------------|---------8\----o||--------------||
|-----------|-------------|-----------------|---------7\-----||--------------||
|-----------|-------------|-5-------5-------|----------------||--------------||
|-2----5----|-7p5---------|---7-5-----7-5---|---------------o||---------8----||
|-0----3----|-----7--5----|-------7-------7-|-0-0-0-0--------||-0-0-0-0-6----||


 Bridge
  E5     G5       N.C.         E5
  Gtr I
   H     H          E  E  Q     H
|---------------|--------------------|
|---------------|--------------------|
|---------------|--------------------|
|---------------|--------------------|
|--2-----5------|---7p=5--------2----|
|--0-----3------|---------7-----0----|
|
| Gtr II
|  ~~~~~~~~~~~~~~~~~~~~         ~~
|  H.        Q     +Q     E  E  H
|---------------|--------------------|
|---------------|--------------------|
|-----------12--|-(12)---------------|
|-14------------|--------14-12-14----|
|---------------|--------------------|
|---------------|--------------------|


               G5           N.C.
      H        H             E  E  Q     H
|-------------------------|-------------------|
|-------------------------|-------------------|
|-------------------------|-------------------|
|-------------------------|-------------------|
|-----2--------5----------|--7p=5-------------|
|-----0--------3----------|--------7-----6----|
|
|     ~~~~~~~~                           ~~
|  a  Q   +H       Q         E  E  E  E  H
|-------------------------|-------------------|
|-------------------------|-------------------|
|-----------------14pb16r=|=14p12-------------|
|-12h14--(14)-------------|-------14-12-14----|
|-------------------------|-------------------|
|-------------------------|-------------------|


     E5     G5       N.C.
      H     H          E  E  Q     H
|------------------|------------------------|
|------------------|------------------------|
|------------------|------------------------|
|------------------|------------------------|
|-----2-----5------|---7p=5-----------------|
|-----0-----3------|---------7-----5--------|
|
|     ~~~~~~~~~~~~~~~~~~~~         ~~
|  a  H.        Q     +Q     E  E  Q   E  E
|------------------|------------------------|
|------------------|------------------------|
|--------------12--|-(12)-------------------|
|-12h14------------|--------14-12-14--12-14-|
|------------------|------------------------|
|------------------|------------------------|


   PM----------------------------------|
   E  E  E  E   E   E  E  E    E  E  E E  H
|---------------------------|-------------------|
|---------------------------|-------------8\----|
|---------------------------|-------------7\----|
|--5------------5-----------|-------------------|
|-----7--5----------7--5----|-------------------|
|-----------7-------------7-|--0--0--0-0--------|
|
|  E  E  E  E  +E   E  E  E    E  E  Q    H
|---------------------------|-------------------|
|---------------------------|-------------------|
|---------------------------|-------------------|
|-14-12-14-12-(12)----------|-------------------|
|------------------14-12S10-|-12p10------10-----|
|---------------------------|-------12----------|


  E5     G5       N.C.         E5
   H     H          E  E  Q     H
|---------------|--------------------|
|---------------|--------------------|
|---------------|--------------------|
|---------------|--------------------|
|--2-----5------|---7p=5--------2----|
|--0-----3------|---------7-----0----|
|
|  ~~~~~~~~~~~~~~~~~~~~         ~~
|  H.        Q     +Q     E  E  H
|---------------|--------------------|
|---------------|--------------------|
|-----------12--|-(12)---------------|
|-14------------|--------14-12-14----|
|---------------|--------------------|
|---------------|--------------------|


               G5           N.C.
      H        H            E  E Q    H
|-------------------------|--------------------------|
|-------------------------|--------------------------|
|-------------------------|--------------------------|
|-------------------------|--------------------------|
|-----2--------5----------|-7p=5---------------------|
|-----0--------3----------|------7----6--------------|
|
|     ~~~~~~~~                                  ~~
|                                     |--3---|
|  a  Q   +H       Q        E  Q   E  E   E  E  Q
|-------------------------|--------------------------|
|-------------------------|--------------------------|
|-----------------14b16===|===14-----14r-14p12-------|
|-12h14--(14)-------------|--------------------14----|
|-------------------------|--------------------------|
|-------------------------|--------------------------|


     E5     G5       N.C.
      H     H          E  E  Q     H
|------------------|--------------------|
|------------------|--------------------|
|------------------|--------------------|
|------------------|--------------------|
|-----2-----5------|---7p=5-------------|
|-----0-----3------|---------7-----5----|
|
|     ~~~~~~~~~~~~~~~~~~~~         ~~
|  a  H.        Q     +Q     E  E  H
|------------------|--------------------|
|------------------|--------------------|
|--------------12--|-(12)---------------|
|-12h14------------|--------14-12-14----|
|------------------|--------------------|
|------------------|--------------------|


                                          G5
   PM-----------------|        PM------|
   E  E E  E  E  E  E  E    E  E  E  E  E E E E
|------------------------|----------------------||
|------------------------|----------------------||
|------------------------|----------------------||
|--5----------5----------|--5-------------------||
|-----7-5--------7--5----|-----7--5-------5-5-5-||
|----------7-----------7-|-----------7--0-3-3-3-||
|
|  E  E E  E  E  E  E  E    E  E  E  E  H
|------------------------|----------------------||
|------------------------|----------------------||
|------------12----------|----------------------||
|-12-14---14----14-12h14-|-12-------------------||
|------------------------|----14-12-10----------||
|------------------------|-------------12-------||


 Guitar Solo
     N.C.                      G5        N.C.                        G5
     PM----------------------|           PM------------------------|
  E  E E E E E E E   E E E E E E E E   E E  E  E E E E E   E E E E E E E E
|------------------|-----------------|-------------------|-----------------|
|------------------|-----------------|-------------------|-----------------|
|------------------|-----------------|-------------------|-----------------|
|------------------|-----------------|-------------------|-----------------|
|-5----------------|-----------5-5-5-|-5-----------------|-----------5-5-5-|
|-3--0-0-0-0-0-0-0-|-0-0-0-0-0-3-3-3-|-3-0--0--0-0-0-0-0-|-0-0-0-0-0-3-3-3-|
|
| ~~                         ~              ~~~                    ~
| H.           E E   E E E E H         E E +H        E E   E E E E H
|------------------|-----------------|-------------------|-----------------|
|------------------|---3-------------|-------------------|---5-------------|
|-4------------2-4-|-5---5-4-2-------|-4-5-(5)-------4-5s|=7---7-5S4-------|
|------------------|-----------------|-------------------|-----------------|
|------------------|-----------------|-------------------|-----------------|
|------------------|-----------------|-------------------|-----------------|


    F#5
      PM--------------------|
  E E E E E E E E   E E E E E E E E
|-----------------|-----------------|
|-----------------|-----------------|
|-----------------|-----------------|
|-----------------|-----------------|
|-5S4-4-4-4-4-4-4-|-4-4-4-4-4-4-4-4-|
|-3S2-2-2-2-2-2-2-|-2-2-2-2-2-2-2-2-|
|
|     ~
| E E H       E E   E E E E E E E E
|-----------------|---7-----7-----7-|
|-----3---------3s|=5---5s6---6s8---|
|-4s5---------4---|-----------------|
|-----------------|-----------------|
|-----------------|-----------------|
|-----------------|-----------------|


    F5                                             G5
       PM----------------------------------------|
  E  E E  E  E     E       E    E     E    E E E E E E E
|----------------------------------|---------------------|
|----------------------------------|---------------------|
|----------------------------------|---------------------|
|----------------------------------|---------------------|
|-4S=3-3--3--3-----3-------3----3--|--3----3-3-3-3-5-5-5-|
|-2S=1-1--1--1-----1-------1----1--|--1----1-1-1-1-3-3-3-|
|
|                                     ~~~~~
| E  E E  E  E     E      +E   +E     W
|------7---------------------------|---------------------|
|-8s10---10-10b12-10b12==(10)r(10)-|-10b12---------------|
|----------------------------------|---------------------|
|----------------------------------|---------------------|
|----------------------------------|---------------------|
|----------------------------------|---------------------|


      N.C.                                G5
      PM--------------------------------|
   E  E E  E  E    E  E E    E  E E  E  E E  E E
|-------------------------|----------------------|
|-------------------------|----------------------|
|-------------------------|----------------------|
|-------------------------|----------------------|
|--5----------------------|---------------5--5-5-|
|--3--0-0--0--0----0--0-0-|--0--0-0--0--0-3--3-3-|
|
|                                    ~~~
|  Q.      E.   S  E  Q      Q.      Q.      Q
|-------------------------|-17-------------------|
|---------17------17------|-----------------17---|
|-16-----------------16---|---------16-----------|
|-------------------------|----------------------|
|-------------------------|----------------------|
|-------------------------|----------------------|


      N.C.                                G5
      PM--------------------------------|
   E  E E  E  E    E  E E    E  E E  E  E E  E E
|-------------------------|------------------------|
|-------------------------|------------------------|
|-------------------------|------------------------|
|-------------------------|------------------------|
|--5----------------------|---------------5--5-5---|
|--3--0-0--0--0----0--0-0-|--0--0-0--0--0-3--3-3---|
|
|                            ~~~
|  Q.      E.   S  E  Q      Q.      Q.      Q
|-------------------------|------------------------|
|---------17------17------|---------17-------------|
|-16-----------------16---|-14--------------16-----|
|-------------------------|------------------------|
|-------------------------|------------------------|
|-------------------------|------------------------|


     F#5
       PM---------------------------|
   E E E  E  E E  E E    E  E E  E  E E  E E
|---------------------|----------------------|
|---------------------|----------------------|
|---------------------|----------------------|
|---------------------|----------------------|
|--5S4-4--4--4-4--4-4-|--4--4-4--4--4-4--4-4-|
|--3S2-2--2--2-2--2-2-|--2--2-2--2--2-2--2-2-|
|
|  ~~~                           ~~~
|  Q.     Q.      Q      Q.      Q.      Q
|---------------------|-15-------------------|
|--------15-----------|-----------------15---|
|-14-------------14---|---------14-----------|
|---------------------|----------------------|
|---------------------|----------------------|
|---------------------|----------------------|


     F5                                G5
       PM---------------------------|
   E E E  E  E E  E E    E  E  E  E  E  E  E E
|---------------------|------------------------|
|---------------------|------------------------|
|---------------------|------------------------|
|---------------------|------------------------|
|--4S3-3--3--3-3--3-3-|--3--3--3--3--3--5--5-5-|
|--2S1-1--1--1-1--1-1-|--1--1--1--1--1--3--3-3-|
|
|  ~~~
|  Q.     Q.      Q      E  E  E  E  E  E  Q
|---------------------|------------------------|
|--------13-----------|------------------------|
|-12-------------12---|-14-12-11-12-11-12------|
|---------------------|-------------------14---|
|---------------------|------------------------|
|---------------------|------------------------|


      N.C.                             G5
      PM-----------------------------|
   E  E E  E  E E  E E    E  E E  E  E E  E E
|----------------------|----------------------|
|----------------------|----------------------|
|----------------------|----------------------|
|----------------------|----------------------|
|--5-------------------|---------------5--5-5-|
|--3--0-0--0--0-0--0-0-|--0--0-0--0--0-3--3-3-|
|
|  ~~~
|  Q.      Q.      Q      Q.      Q.      Q
|----------------------|-17-------------------|
|---------17-----------|-----------------17---|
|-16--------------16---|---------16-----------|
|----------------------|----------------------|
|----------------------|----------------------|
|----------------------|----------------------|


      N.C.                             G5
      PM-----------------------------|
   E  E E  E  E E  E E    E  E E  E  E E  E E
|----------------------|----------------------|
|----------------------|----------------------|
|----------------------|----------------------|
|----------------------|----------------------|
|--5-------------------|---------------5--5-5-|
|--3--0-0--0--0-0--0-0-|--0--0-0--0--0-3--3-3-|
|
|  Q.      Q.      Q      Q.      Q.      Q
|----------------------|---------14-----------|
|---------17-----------|-15--------------15---|
|-16--------------16---|----------------------|
|----------------------|----------------------|
|----------------------|----------------------|
|----------------------|----------------------|


     F#5
       PM---------------------------|
   E E E  E  E E  E E    E  E E  E  E E  E E
|---------------------|----------------------|
|---------------------|----------------------|
|---------------------|----------------------|
|---------------------|----------------------|
|--5S4-4--4--4-4--4-4-|--4--4-4--4--4-4--4-4-|
|--3S2-2--2--2-2--2-2-|--2--2-2--2--2-2--2-2-|
|
|                                ~~~
|  Q.     Q.      Q      Q.      Q.      Q
|---------------------|-15-------------------|
|--------15-----------|-----------------15---|
|-14-------------14---|---------14-----------|
|---------------------|----------------------|
|---------------------|----------------------|
|---------------------|----------------------|


     F5                                          G5
       PM-------------------------------------|
   E E E  E  E E  E E    E    E     E    E     E  E  E  E
|---------------------|-----------------------------------||
|---------------------|-----------------------------------||
|---------------------|-----------------------------------||
|---------------------|-----------------------------------||
|--4S3-3--3--3-3--3-3-|--3----3-----3----3-----3--5--5--5-||
|--2S1-1--1--1-1--1-1-|--1----1-----1----1-----1--3--3--3-||
|
|                                              PM------|
|                        |---3---|  |---3---|
|  Q.     Q.      Q      E  E    E  E  E    E  E  E  E  E
|---------------------|-----------------------------------||
|--------13-----------|-----------------------------------||
|-12-------------12---|-14p12p==11------------------------||
|---------------------|------------14p12------------------||
|---------------------|--------------------14-12-10-------||
|---------------------|-----------------------------12-10-||


   Interlude
    N.C.
   3/4
    Gtrs I, II
      PM------|     PM------|     PM------|     PM------|
    E E E E E E   E E E E E E   E E E E E E   E E E E E E
||--------------|-------------|-------------|--------------||
||o-------------|-------------|-------------|-------------o||
||--------------|-------------|-------------|--------------||
||--5-----------|-5-----------|-5-----------|-5------------||
||o---7-5---5-7-|---7-5---5-7-|---7-5---5-7-|---7-5---5-7-o||
||--------7-----|-------7-----|-------7-----|-------7------||


  G                                                 N.C.
 4/4
                                                    PM|
   W           +W            +W            +H.      E E
|-----------|-------------|-------------|---------------|
|-----------|-------------|-------------|---------------|
|-12--------|-(12)--------|-(12)--------|-(12)----------|
|--x--------|-------------|-------------|---------------|
|-10--------|-(10)--------|-(10)--------|-(10)----------|
|-----------|-------------|-------------|-----------0-0-|


                                                      1.,2.,3.
    G                     N.C.  G  F#      F       E            N.C.
                          PM|         PM      PM                PM|
     W           +H.      E E    E  E E  E  E E  E E   +H.      E E   4x
||------------|---------------|----------------------|----------------||
||o-----------|---------------|----------------------|---------------o||
||--12--------|-(12)----------|-12s11---11s10---10s9-|-(9)------------||
||---x--------|---------------|--x--x----x--x----x-x-|----------------||
||o-10--------|-(10)----------|-10s=9----9s=8----8s7-|-(7)-----------o||
||------------|-----------0-0-|-------0-------0------|----------0-0---||


                 Pre Chorus
  4.
  E               N.C.
           PM--------------------------------------
   H.      Q      S S S S S S S S S S S S S S S S
|--------------||---------------------------------|
|--------------||---------------------------------|
|-(9)----------||---------------------------------|
|--------------||---------------------------------|
|-(7)----------||---------------------------------|
|----------x\--||-0-0-0-0-0-0-0-0-0-0-0-0-0-0-0-0-|


 -------------------------------|
  S S S S S S S S S S S S S S S S
|-----------------------------------|
|-----------------------------------|
|-----------------------------------|
|-----------------------------------|
|-----------------------------------|
|-0-0-0-0-0-0-0-0-0-0-0-0-0-0-0-0---|


  PM-------------------------------
  S S S S S S S S S S S S S S S S
|---------------------------------|
|---------------------------------|
|---------------------------------|
|---------------------------------|
|---------------------------------|
|-0-0-0-0-0-0-0-0-0-0-0-0-0-0-0-0-|


 -----------------------------------------------------------------|
  S S S S S S S S S S S S S S S S   S S S S S S S S S S S S S S S S
|---------------------------------|---------------------------------|
|---------------------------------|---------------------------------|
|---------------------------------|---------------------------------|
|---------------------------------|---------------------------------|
|---------------------------------|---------------------------------|
|-0-0-0-0-0-0-0-0-0-0-0-0-0-0-0-0-|-0-0-0-0-0-0-0-0-0-0-0-0-0-0-0-0-|


  PM-------------------------------
  S S S S S S S S S S S S S S S S
|---------------------------------|
|---------------------------------|
|---------------------------------|
|---------------------------------|
|---------------------------------|
|-0-0-0-0-0-0-0-0-0-0-0-0-0-0-0-0-|


                                              D.S. al Coda
 -------------------------------------------------|   PM--|
  S S S S S S S S S S S S S S S S   S S S S S S S S E E E E
|---------------------------------|--------------------------||
|---------------------------------|--------------------------||
|---------------------------------|--------------------------||
|---------------------------------|-----------------5--------||
|---------------------------------|-------------------7-5----||
|-0-0-0-0-0-0-0-0-0-0-0-0-0-0-0-0-|-0-0-0-0-0-0-0-0-------7--||


                          Outro
  &
               2/4        3/4
  PM|                        PM------|     PM------|
  E E H.        +H         E E E E E E   E E E E E E
|-------------|--------||--------------|-------------|
|-------------|--------||o-------------|-------------|
|-------------|--------||--------------|-------------|
|-------------|--------||--5-----------|-5-----------|
|-5-7---------|--------||o---7-5---5-7-|---7-5---5-7-|
|-----0-------|-(0)----||--------7-----|-------7-----|


               1.,2.       3.
                E5
               2/4         4/4
    PM------|       PM          PM
  E E E E E E   E E E E  3x E E E E H
|-------------|----------||--------------*|
|-------------|---------o||--------------*|
|-------------|----------||--------------*|
|-5-----------|-2---2----||-2---2--------*|
|---7-5---5-7-|-2---2---o||-2---2--------*|
|-------7-----|-0---0----||-0---0--------*|



Duration Legend
---------------
W - whole; H - half; Q - quarter; E - 8th; S - 16th; T - 32nd; X - 64th; a - acciaccatura
+ - note tied to previous; . - note dotted; .. - note double dotted
Uncapitalized letters represent notes that are staccato (1/2 duration)
Irregular groupings are notated above the duration line
Duration letters will always appear directly above the note/fret number it represents the
duration for.  Duration letters with no fret number below them represent rests.  Multi-
bar rests are notated in the form Wxn, where n is the number of bars to rest for.  Low
melody durations appear below the staff

Tablature Legend
----------------
 h   - hammer-on
 p   - pull-off
 b   - bend
 pb  - pre-bend
 r   - bend release (if no number after the r, then release immediately)
 /\  - slide into or out of (from/to "nowhere")
 s   - legato slide
 S   - shift slide
<n> - natural harmonic
[n]  - artificial harmonic
n(n) - tapped harmonic
 ~   - vibrato
 tr  - trill
 T   - tap
 TP  - trem. picking
 PM  - palm muting
\n/  - tremolo bar dip; n = amount to dip
 \n  - tremolo bar down
 n/  - tremolo bar up
/n\  - tremolo bar inverted dip
 =   - hold bend; also acts as connecting device for hammers/pulls
 <> - volume swell (louder/softer)
 x   - on rhythm slash represents muted slash
 o   - on rhythm slash represents single note slash

Misc Legend
-----------
 |  - bar
||  - double bar
||o - repeat start
o|| - repeat end
*|  - double bar (ending)
 :  - bar (freetime)
 $  - Segno
 &  - Coda
Tempo markers - <E/E./Q/Q./H/H.> = BPM(8/16=s8/s16), where s8 = swing 8ths, s16 = swing 16ths

comments
We did not receive enough feedback on this tab! Please rate:
print report bad tab
1 2 3 4 5
I want to post or [tab]
guest
You may want to rate the tab now too:
select rating
Please do not post tabs as comments. Select "correction" instead!