Oops, an error
Loading. Please wait.

Efilnikufesin Nfl Tab

8,899 views 19 this week
no commentswrite comment
1 2 3 4 5
accurate
x 5
Autoscroll
+/-
esc
set tempo
stop
Contributor
WARNING: You are trying to view
                                    content from Ultimate-Guitar.com
                                    in an unauthorized application,
                                    which is prohibited.

                                    Please use an official Ultimate
                                    Guitar Tabs application for iPhone,
                                    iPad or Android to access legitimate
                                    chords, guitar, bass, and drum tabs
                                    from Ultimate-Guitar.com database.

                                    Type "ultimate guitar tabs" in Apple
                                    App Store's or Android Market's
                                    search to find the application.
#----------------------------------PLEASE NOTE---------------------------------#
#This file is the author's own work and represents their interpretation of the #
#song. You may only use this file for private study, scholarship, or research. #
#------------------------------------------------------------------------------#

EFILNIKUFESIN (N.F.L.)
As recorded by Anthrax
(From the 1987 Album AMONG THE LIVING)

Transcribed by warlockmb, Russ Elton (webmaster@abysslord.com)
        

Words and Music by Anthrax
Arranged by warlockmb

Gtr I (E A D G B E) - 'Untitled'
Gtr II (E A D G B E) - 'Untitled'
Gtr III (E A D G B E) - 'Untitled'

 Intro
  Fast Rock Q=198
  N.C.
 4/4
  Gtr I
  Q  E E E E E E   W          +Q   E E E E E E   Q.   +E    +H
|----------------|----------|------------------|-------------------|
|----------------|----------|------------------|-------------------|
|----------------|----------|------------------|-------------------|
|----------------|----------|------------------|-------------------|
|----5-6-7-5-6-7-|----------|------5-6-7-5-6-7-|-------------------|
|----------------|-0--------|-(0)--------------|-6----(6)b8r(6)----|
|
| Gtr II
| Q  E E E E E E   W          +Q   E E E E E E   Q.   +E    +H
|----------------|----------|------------------|-------------------|
|----------------|----------|------------------|-------------------|
|----------------|----------|------------------|-------------------|
|----4-5-6-4-5-6-|----------|------4-5-6-4-5-6-|-------------------|
|----------------|----------|------------------|-5----(5)b7r(5)----|
|----------------|-0--------|-(0)--------------|-------------------|


  +Q   E E E E E E   W          +Q   E E E E E E   Q.   +E    +H
|------------------|----------|------------------|-------------------|
|------------------|----------|------------------|-------------------|
|------------------|----------|------------------|-------------------|
|------------------|----------|------------------|-------------------|
|------5-6-7-5-6-7-|----------|------5-6-7-5-6-7-|-------------------|
|-(6)--------------|-0--------|-(0)--------------|-6----(6)b8r(6)----|
|
| +Q   E E E E E E   W          +Q   E E E E E E   Q.   +E    +H
|------------------|----------|------------------|-------------------|
|------------------|----------|------------------|-------------------|
|------------------|----------|------------------|-------------------|
|------4-5-6-4-5-6-|----------|------4-5-6-4-5-6-|-------------------|
|-(5)--------------|----------|------------------|-5----(5)b7r(5)----|
|------------------|-0--------|-(0)--------------|-------------------|


                      Pre-Verse
                       N.C.
       PM----------------------------------------------|
  +Q   E E E E E E     E E E E E E E E   E E E E E E E E
|------------------||------------------|-----------------|
|------------------||o-----------------|-----------------|
|------------------||------------------|-----------------|
|------------------||------------------|-----------------|
|------------------||o-----------------|-----------------|
|-(6)--3-4-5-3-4-5-||--0-0-0-0-0-0-0-0-|-0-0-3-4-5-3-4-5-|
|
|      PM----------------------------------------------|
| +Q   E E E E E E     E E E E E E E E   E E E E E E E E
|------------------||------------------|-----------------|
|------------------||o-----------------|-----------------|
|------------------||------------------|-----------------|
|------------------||------------------|-----------------|
|-(5)--------------||o-----------------|-----------------|
|------3-4-5-3-4-5-||--0-0-0-0-0-0-0-0-|-0-0-3-4-5-3-4-5-|


                   1.,2.,3.             4.
  PM--------------------------------------|
  E E E E E E E E   E E E E E E E E     E E E E E E E E
|-----------------|------------------||-----------------|
|-----------------|-----------------o||-----------------|
|-----------------|------------------||-----------------|
|-----------------|------------------||-----------------|
|-----------------|-----------------o||-----5-6-7-5-6-7-|
|-4-4-4-4-4-4-4-4-|-4-4-3-4-5-3-4-5--||-4-4-------------|
|
| PM--------------------------------------|
| E E E E E E E E   E E E E E E E E     E E E E E E E E
|-----------------|------------------||-----------------|
|-----------------|-----------------o||-----------------|
|-----------------|------------------||-----------------|
|-----------------|------------------||-----------------|
|-----------------|-----------------o||-----5-6-7-5-6-7-|
|-4-4-4-4-4-4-4-4-|-4-4-3-4-5-3-4-5--||-4-4-------------|


   Verse
                                                         1.
    E5                                  Bb5
    Gtrs I, II
      PM----------------|                 PM----------------|
    E E E E E E E E   E E E E E E E E   E E E E E E E E   E E E E E E E E
||------------------|-----------------|-----------------|-------------------||
||o-----------------|-----------------|-----------------|------------------o||
||------------------|-----------------|-----------------|-------------------||
||------------------|-----------------|-----------------|-------------------||
||o-2---------------|-----5-6-7-5-6-7-|-8---------------|-----5-6-7-5-6-7--o||
||--0-0-0-0-0-0-0-0-|-0-0-------------|-6-6-6-6-6-6-6-6-|-6-6---------------||


                    2nd Verse
  2.
                     N.C.
  Gtr I
  PM|
  E E E E E E E E    W          +Q   E E E E E E   Q.   +E    +H
|-----------------||----------|------------------|-------------------|
|-----------------||----------|------------------|-------------------|
|-----------------||----------|------------------|-------------------|
|-----------------||----------|------------------|-------------------|
|-----5-6-7-5-6-7-||----------|------5-6-7-5-6-7-|-------------------|
|-6-6-------------||-0--------|-(0)--------------|-6----(6)b8r(6)----|
|
| Gtr II
| PM|
| E E E E E E E E    W          +Q   E E E E E E   Q.   +E    +H
|-----------------||----------|------------------|-------------------|
|-----------------||----------|------------------|-------------------|
|-----------------||----------|------------------|-------------------|
|-----4-5-6-4-5-6-||----------|------4-5-6-4-5-6-|-------------------|
|-----------------||----------|------------------|-5----(5)b7r(5)----|
|-6-6-------------||-0--------|-(0)--------------|-------------------|


  +Q   E E E E E E   W          +Q   E E E E E E   Q.   +E    +H
|------------------|----------|------------------|-------------------|
|------------------|----------|------------------|-------------------|
|------------------|----------|------------------|-------------------|
|------------------|----------|------------------|-------------------|
|------5-6-7-5-6-7-|----------|------5-6-7-5-6-7-|-------------------|
|-(6)--------------|-0--------|-(0)--------------|-6----(6)b8r(6)----|
|
| +Q   E E E E E E   W          +Q   E E E E E E   Q.   +E    +H
|------------------|----------|------------------|-------------------|
|------------------|----------|------------------|-------------------|
|------------------|----------|------------------|-------------------|
|------4-5-6-4-5-6-|----------|------4-5-6-4-5-6-|-------------------|
|-(5)--------------|----------|------------------|-5----(5)b7r(5)----|
|------------------|-0--------|-(0)--------------|-------------------|


                      3rd Verse
                       E5
       PM--------|       PM--------|     PM------------|
  +Q   E E E E E E     E E E E E E E E   E E E E E E E E
|------------------||------------------|-----------------|
|------------------||o-----------------|-----------------|
|------------------||------------------|-----------------|
|------------------||------------------|-----------------|
|------------------||o-2-------------2-|-----------------|
|-(6)--3-4-5-3-4-5-||--0-0-0-0-0-0-0-0-|-0-0-3-4-5-3-4-5-|
|
|      PM--------|       PM--------|     PM------------|
| +Q   E E E E E E     E E E E E E E E   E E E E E E E E
|------------------||------------------|-----------------|
|------------------||o-----------------|-----------------|
|------------------||------------------|-----------------|
|------------------||------------------|-----------------|
|-(5)--------------||o-2-------------2-|-----------------|
|------3-4-5-3-4-5-||--0-0-0-0-0-0-0-0-|-0-0-3-4-5-3-4-5-|


  G#5                                 E5
  Gtrs I, II
    PM--------|     PM------------|     PM--------|     PM------------|
  E E E E E E E E   E E E E E E E E   E E E E E E E E   E E E E E E E E
|-----------------|-----------------|-----------------|-----------------|
|-----------------|-----------------|-----------------|-----------------|
|-----------------|-----------------|-----------------|-----------------|
|-----------------|-----------------|-----------------|-----------------|
|-6-------------6-|-----------------|-2-------------2-|-----------------|
|-4-4-4-4-4-4-4-4-|-4-4-3-4-5-3-4-5-|-0-0-0-0-0-0-0-0-|-0-0-3-4-5-3-4-5-|


                                       Pre-Chorus
  G#5                                   E5            F#5  G5
    PM--------|     PM------------|             PM|
  E E E E E E E E   E E E E E E E E     H.      E E   H    H
|-----------------|------------------||-------------|-----------|
|-----------------|-----------------o||-------------|-----------|
|-----------------|------------------||-------------|-----------|
|-----------------|------------------||-------------|-----------|
|-6-------------6-|-----------------o||-2-----------|-4----5----|
|-4-4-4-4-4-4-4-4-|-4-4-3-4-5-3-4-5--||-0-------0-0-|-2----3----|


  C5                       A5            G5   D5
          PM|                      PM|
  H.      E E   W          H.      E E   H    H
|-------------|----------|-------------|-----------|
|-------------|----------|-------------|-----------|
|-------------|----------|-------------|-----------|
|-5-----------|-5--------|-------------|------7----|
|-3-----------|-3--------|-7-----------|-5----5----|
|---------0-0-|----------|-5-------0-0-|-3---------|


  E5                                     F#5  G5
          PM|                      PM|
  H.      E E   W          H.      E E   H    H
|-------------|----------|-------------|-----------|
|-------------|----------|-------------|-----------|
|-------------|----------|-------------|-----------|
|-------------|----------|-------------|-----------|
|-2-----------|-2--------|-2-----------|-4----5----|
|-0-------0-0-|-0--------|-0-------0-0-|-2----3----|


  C5                       A5            G5   F#5
          PM|                      PM|
  H.      E E   W          H.      E E   H    H
|-------------|----------|-------------|-----------|
|-------------|----------|-------------|-----------|
|-------------|----------|-------------|-----------|
|-5-----------|-5--------|-------------|-----------|
|-3-----------|-3--------|-7-----------|-5----4----|
|---------0-0-|----------|-5-------0-0-|-3----2----|


                                   Chorus
  E5                                F5  F#5 F#F5
    PM----------|                               PM------------------|
  E E E E E E E E   E E Q  H        E E E E E E E E   E E E E E E E E
|-----------------|-------------||------------------|-----------------|
|-----------------|-------------||o-----------------|-----------------|
|-----------------|-------------||------------------|-----------------|
|-----------------|-------------||------------------|-----------------|
|-2---------------|-2-----------||o-3---4---4S3-----|-----------------|
|-0-0-0-0-0-0-0-0-|-0-----------||--1---2---2S1-1-1-|-1-1-1-1-1-1-1-1-|


  G#5 A5  A5G#5                              F5  F#5 F#F5
              PM--------|                                PM|
  E E E E E E E E   E E E E +E    +E  +Q     E E E E E E E E
|-----------------|------------------------|-----------------|
|-----------------|------------------------|-----------------|
|-----------------|------------------------|-----------------|
|-----------------|------------------------|-----------------|
|-6---7---7S6-----|------------------------|-3---4---4S3-----|
|-4---5---5S4-4-4-|-4-4-4-6-(6)b8r(6)-(6)--|-1---2---2S1-1-1-|


                    G#5 A5  A5G#5
  PM------------|               PM--------|
  E E E E E E E E   E E E E E E E E   E E E E +E    +E  +Q
|-----------------|-----------------|-------------------------||
|-----------------|-----------------|------------------------o||
|-----------------|-----------------|-------------------------||
|-----------------|-----------------|-------------------------||
|-----------------|-6---7---7S6-----|------------------------o||
|-1-1-1-1-1-1-1-1-|-4---5---5S4-4-4-|-4-4-4-6-(6)b8r(6)-(6)---||


                2nd Verse
                 N.C.
 3/4            4/4
  Gtr I
  E E E E E E    W          +Q   E E E E E E
|-------------||----------|------------------|
|-------------||----------|------------------|
|-------------||----------|------------------|
|-------------||----------|------------------|
|-5-6-7-5-6-7-||----------|------5-6-7-5-6-7-|
|-------------||-0--------|-(0)--------------|
|
| Gtr II
| E E E E E E    W          +Q   E E E E E E
|-------------||----------|------------------|
|-------------||----------|------------------|
|-------------||----------|------------------|
|-4-5-6-4-5-6-||----------|------4-5-6-4-5-6-|
|-------------||----------|------------------|
|-------------||-0--------|-(0)--------------|


  Q.   +E    +H       +Q   E E E E E E   W
|-------------------|------------------|------|
|-------------------|------------------|------|
|-------------------|------------------|------|
|-------------------|------------------|------|
|-------------------|------5-6-7-5-6-7-|------|
|-6----(6)b8r(6)----|-(6)--------------|-0----|
|
| Q.   +E    +H       +Q   E E E E E E   W
|-------------------|------------------|------|
|-------------------|------------------|------|
|-------------------|------------------|------|
|-------------------|------4-5-6-4-5-6-|------|
|-5----(5)b7r(5)----|-(5)--------------|------|
|-------------------|------------------|-0----|


                                              PM--------|
  +Q   E E E E E E   Q.   +E    +H       +Q   E E E E E E
|------------------|-------------------|------------------|
|------------------|-------------------|------------------|
|------------------|-------------------|------------------|
|------------------|-------------------|------------------|
|------5-6-7-5-6-7-|-------------------|------------------|
|-(0)--------------|-6----(6)b8r(6)----|-(6)--3-4-5-3-4-5-|
|
|                                             PM--------|
| +Q   E E E E E E   Q.   +E    +H       +Q   E E E E E E
|------------------|-------------------|------------------|
|------------------|-------------------|------------------|
|------------------|-------------------|------------------|
|------4-5-6-4-5-6-|-------------------|------------------|
|------------------|-5----(5)b7r(5)----|-(5)--------------|
|-(0)--------------|-------------------|------3-4-5-3-4-5-|


   3rd Verse
    $
    E5                                  G#5
    Gtrs I, II
      PM--------|     PM------------|     PM--------|     PM------------|
    E E E E E E E E   E E E E E E E E   E E E E E E E E   E E E E E E E E
||------------------|-----------------|-----------------|------------------|
||o-----------------|-----------------|-----------------|------------------|
||------------------|-----------------|-----------------|------------------|
||------------------|-----------------|-----------------|------------------|
||o-2-------------2-|-----------------|-6-------------6-|------------------|
||--0-0-0-0-0-0-0-0-|-0-0-3-4-5-3-4-5-|-4-4-4-4-4-4-4-4-|-4-4-3-4-5-3-4-5--|


  E5                                  G#5
    PM--------|     PM------------|     PM--------|     PM------------|
  E E E E E E E E   E E E E E E E E   E E E E E E E E   E E E E E E E E
|-----------------|-----------------|-----------------|------------------||
|-----------------|-----------------|-----------------|-----------------o||
|-----------------|-----------------|-----------------|------------------||
|-----------------|-----------------|-----------------|------------------||
|-2-------------2-|-----------------|-6-------------6-|-----------------o||
|-0-0-0-0-0-0-0-0-|-0-0-3-4-5-3-4-5-|-4-4-4-4-4-4-4-4-|-4-4-3-4-5-3-4-5--||


 Pre-Chorus
  E5            F#5  G5     C5
          PM|                       PM|           PM|
  H.      E E   H    H      H.      E E   H.      E E
|-------------|-----------|-------------|-------------|
|-------------|-----------|-------------|-------------|
|-------------|-----------|-------------|-------------|
|-------------|-----------|-5-----------|-5-----------|
|-2-----------|-4----5----|-3-----------|-3-----------|
|-0-------0-0-|-2----3----|---------0-0-|---------0-0-|


  A5            G5   D5     E5
          PM|                       PM|           PM|
  H.      E E   H    H      H.      E E   H.      E E
|-------------|-----------|-------------|-------------|
|-------------|-----------|-------------|-------------|
|-------------|-----------|-------------|-------------|
|-------------|------7----|-------------|-------------|
|-7-----------|-5----5----|-2-----------|-2-----------|
|-5-------0-0-|-3---------|-0-------0-0-|-0-------0-0-|


                F#5  G5     C5
          PM|                       PM|           PM|
  H.      E E   H    H      H.      E E   H.      E E
|-------------|-----------|-------------|-------------|
|-------------|-----------|-------------|-------------|
|-------------|-----------|-------------|-------------|
|-------------|-----------|-5-----------|-5-----------|
|-2-----------|-4----5----|-3-----------|-3-----------|
|-0-------0-0-|-2----3----|---------0-0-|---------0-0-|


  A5            G5   F#5    E5
          PM|                 PM----------|
  H.      E E   H    H      E E E E E E E E   E E Q  H
|-------------|-----------|-----------------|-------------|
|-------------|-----------|-----------------|-------------|
|-------------|-----------|-----------------|-------------|
|-------------|-----------|-----------------|-------------|
|-7-----------|-5----4----|-2---------------|-2-----------|
|-5-------0-0-|-3----2----|-0-0-0-0-0-0-0-0-|-0-----------|


   Chorus
    F5  F#5 F#F5
                PM------------------|
    E E E E E E E E   E E E E E E E E
||------------------|-----------------|
||o-----------------|-----------------|
||------------------|-----------------|
||------------------|-----------------|
||o-3---4---4S3-----|-----------------|
||--1---2---2S1-1-1-|-1-1-1-1-1-1-1-1-|


  G#5 A5  A5G#5
              PM--------|
  E E E E E E E E   E E E E +E    +E  +Q
|-----------------|-------------------------|
|-----------------|-------------------------|
|-----------------|-------------------------|
|-----------------|-------------------------|
|-6---7---7S6-----|-------------------------|
|-4---5---5S4-4-4-|-4-4-4-6-(6)b8r(6)-(6)---|


  F5  F#5 F#F5
              PM------------------|
  E E E E E E E E   E E E E E E E E
|-----------------|-----------------|
|-----------------|-----------------|
|-----------------|-----------------|
|-----------------|-----------------|
|-3---4---4S3-----|-----------------|
|-1---2---2S1-1-1-|-1-1-1-1-1-1-1-1-|


  G#5 A5  A5G#5
              PM--------|
  E E E E E E E E   E E E E +E    +E  +Q
|-----------------|-------------------------||
|-----------------|------------------------o||
|-----------------|-------------------------||
|-----------------|-------------------------||
|-6---7---7S6-----|------------------------o||
|-4---5---5S4-4-4-|-4-4-4-6-(6)b8r(6)-(6)---||


                Bridge
     To Coda
                 E5Eb5/E5Eb5/E5Eb5/Bb
 3/4            4/4
  Gtr I
                     PM    PM      PM|
  E E E E E E    E E E E E E E E   E E E E E E E E
|-------------||-----------------|-----------------|
|-------------||-----------------|-----------------|
|-------------||-----------------|-----------------|
|-------------||-2s1---2s1---2s1-|-----------------|
|-5-6-7-5-6-7-||-2s1---2s1---2s1-|-----5-6-7-5-6-7-|
|-------------||-----0-----0-----|-0-0-------------|
|
| Gtr II
|                    PM    PM      PM|
| E E E E E E    E E E E E E E E   E E E E E E E E
|-------------||-----------------|-----------------|
|-------------||-----------------|-----------------|
|-------------||-----------------|-----------------|
|-4-5-6-4-5-6-||-2s1---2s1---2s1-|-----------------|
|-------------||-2s1---2s1---2s1-|-----5-6-7-5-6-7-|
|-------------||-----0-----0-----|-0-0-------------|


                    E5
                                                            3/4
                       PM|   PM|   PM--|      PM|   PM  PM
  E E E E E E E E    E E E E E E E E     E  E E E E E E E      E  E E E E E
|-----------------|------------------|--------------------||-----------------|
|-----------------|------------------|--------------------||-----------------|
|-------------7-9-|------------------|--------------------||-----------------|
|-------6-7-9-----|------------------|--------------------||-----------------|
|-5-7-8-----------|--2-----2-----2---|------2-----2---2---||---5--6-7-5-6-7--|
|-----------------|--0-0-0-0-0-0-0-0-|---0--0-0-0-0-0-0-0-||-----------------|
|
|                    ~~~~~~~~~~~~~~~~~~~~~~~~~~~~~~~~~~~~~~~~~~~~~
| E E E E E E E E    W                  +W                    +H.
|-----------------|------------------|--------------------||-----------------|
|-----------------|------------------|--------------------||-----------------|
|-------------7-9-|-10---------------|-(10)---------------||-(10)------------|
|-------6-7-9-----|------------------|--------------------||-----------------|
|-5-7-8-----------|------------------|--------------------||-----------------|
|-----------------|------------------|--------------------||-----------------|


   Breakdown
                                                         1.,2.,3.
    E5Eb5/E5Eb5/E5Eb5/Bb
   4/4
        PM    PM      PM|
    E E E E E E E E   E E E E E E E E   E E E E E E E E    Q   E E E E E E
||------------------|-----------------|-----------------|-------------------||
||o-----------------|-----------------|-----------------|------------------o||
||------------------|-----------------|-------------7-9-|-10\---------------||
||--2s1---2s1---2s1-|-----------------|-------6-7-9-----|-------------------||
||o-2s1---2s1---2s1-|-----5-6-7-5-6-7-|-5-7-8-----------|------5-6-7-5-6-7-o||
||------0-----0-----|-0-0-------------|-----------------|-------------------||
|
|       PM    PM
|   E E E E E E E E   E E E E E E E E   E E E E E E E E    Q   E E E E E E
||------------------|-----------------|-----------------|-------------------||
||o-----------------|-----------------|-----------------|------------------o||
||------------------|-----------------|-------------7-9-|-10\---------------||
||--2s1---2s1---2s1-|-----------------|-------6-7-9-----|-------------------||
||o-2s1---2s1---2s1-|-----5-6-7-5-6-7-|-5-7-8-----------|------5-6-7-5-6-7-o||
||------0-----0-----|-0-0-------------|-----------------|-------------------||


                            Guitar Solo
  4.
                             E5/B  Eb5/E5Eb5/E5Eb5/Bb
  Gtr I
                                     PM    PM
   Q     E  E  E  E  E  E     E    E E E E E E E
|-------------------------||---------------------|
|-------------------------||---------------------|
|-10\---------------------||---------------------|
|-------------------------||--2s===1---2s1---2s1-|
|--------5--6--7--5--6--7-||--2s===1---2s1---2s1-|
|-------------------------||---------0-----0-----|
|
| Gtr III
|                             ~~~~~
|  E  E  E  E  E  E  E  E     W
|-------------10-12-13-10-||---------------------|
|-----9-10-12-------------||-13b15---------------|
|-------------------------||---------------------|
|-------------------------||---------------------|
|-------------------------||---------------------|
|-------------------------||---------------------|


                                A5/G#5/Eb  A5/G#5/EA5G#5/Eb
                                         PM      PM
    E  E  E  E     E  E  E  E    E  E    E  E E  E E  E
|-----------------------------|-------------------------|
|-----------------------------|-------------------------|
|-----------------------------|-------------------------|
|-----------------------------|--7s=6-------7s6----7s=6-|
|---------5--6-----7--5--6--7-|--7s=6-------7s6----7s=6-|
|---0--0----------------------|----------0-------0------|
|
|  +Q     E  S  S  E  E  E  E    E  S  S E  E E  E E  E
|--------10-12p10----10-------|-------------------------|
|-(13)------------13----12-13-|-10-12p10-9-10-9---------|
|-----------------------------|-----------------10-9-10-|
|-----------------------------|-------------------------|
|-----------------------------|-------------------------|
|-----------------------------|-------------------------|


                            E5/B  Eb5/BE5Eb5/Bb  E5/Eb5/Bb
   PM---|                            PM        PM
   E    E   E   E E E E E    E    E  E E  E    E  E E
|-------------------------|---------------------------|
|-------------------------|---------------------------|
|-------------------------|---------------------------|
|-------------------------|--2s===1----2s=1-------2s1-|
|-----------5---6-7-5-6-7-|--2s===1----2s=1-------2s1-|
|--0----0-----------------|----------0---------0------|
|
|  Q       +H         Q      E    E  Q    E    E  Q
|-------------------------|---------------------------|
|-------------------------|-------7------------7------|
|-10b12r==(10)\-----------|-10b12---10---10b12---10---|
|-------------------------|---------------------------|
|-------------------------|---------------------------|
|-------------------------|---------------------------|


   E    E  E    E  E    E  E E
|------------------------------|
|------------------------------|
|------------------------------|
|------------------------------|
|----------5----6--7----5--6-7-|
|--0----0----------------------|
|
|  E    E  E    E  E    E  Q
|------------------------------|
|-------7-------7-------7------|
|-10b12---10b12---10b12---10---|
|------------------------------|
|------------------------------|
|------------------------------|


  A5G#5/Eb       A5/G#5A5G#5/Eb                    E5Eb5/E5Eb5/Bb E5/BEb5/Bb
          PM      PM        PM|                        PM       PM
  E  E    E E  E  E  E  E   E  E   E E   E E E E   E E E E E    E  E  E
|-------------------------|----------------------|----------------------|
|-------------------------|----------------------|----------------------|
|-------------------------|----------------------|----------------------|
|-7s=6------7s=6-----7s=6-|----------------------|-2s1---2s1-------2s=1-|
|-7s=6------7s=6-----7s=6-|--------5-6---7-5-6-7-|-2s1---2s1-------2s=1-|
|---------0-------0-------|-0--0-----------------|-----0--------0-------|
|
|                                        ~
| E  S S  E E  E  E  E  E   E  S S E S S H         E E E E Q      +Q
|-------------------------|----------------------|----------------------|
|-8h10p8----8-------------|----------------------|----------------------|
|-9h10p9-10-9-10--9-10--9-|-7h=9p7-5h7p5S4-------|---4h5-7-7b9r===(7)---|
|--------12---12-10-12-10-|-9h10p9-7h9p7S6-------|---6h7-9-9b11r==(9)---|
|-------------------------|----------------------|----------------------|
|-------------------------|----------------------|----------------------|


                        A5G#5/EbA5G#5/Eb      AG#5/Eb
                              PM       PM          PM|
  E E E  E   E  E E E   E  E  E E  E   E    E E    E  E E E  E   E E E
|---------------------|-------------------------|-----------------------|
|---------------------|-------------------------|-----------------------|
|---------------------|-------------------------|-----------------------|
|---------------------|-7s=6----7s=6--------7s6-|-----------------------|
|-----5--6---7--5-6-7-|-7s=6----7s=6--------7s6-|-------5-6--7---5-6-7--|
|-0-0-----------------|-------0--------0--------|--0--0-----------------|
|
|            ~~~~
| Q   E  E  +H          E  E  E E +E   S S  E E    E  E E E +H
|---------------------|-------------------------|-----------------------|
|---------------------|-------------------------|-----------------------|
|-----9S11-(11)-------|-9-10-12-9-(9)-10p9----9-|---------9-(9)/--------|
|---------------------|--------------------12---|-12-10-9-9-(9)/--------|
|---------------------|-------------------------|-----------------------|
|---------------------|-------------------------|-----------------------|


             Eb5E5/B
  PM-----|          PM-------|
  E E  E E    E  E  E E    E E  E  E E E  E  E
|-----------------------|----------------------|
|-----------------------|----------------------|
|-----------------------|----------------------|
|-------------1s=2------|----------------------|
|-------------1s=2------|-------5--6-7-5--6--7-|
|-0-0--0-0----------0-0-|--0-0-----------------|
|
| Q    E S S  E  E  E E    E E  E  E Q    E  E
|-----------------------|----------------------|
|-----------------------|----------------------|
|-----12-x-x-12s14s12---|-14---14s12-----------|
|-----12-x-x-12s14s12---|-14---14s12-----12s14-|
|-----------------------|----------------------|
|-----------------------|----------------------|


           EbE5/B
  PM-----|      PM-------|
  E E  E E E E  E  E   E E  E  E E E  E  E
|--------------------|----------------------||
|--------------------|----------------------||
|--------------------|----------------------||
|----------1s2-------|----------------------||
|----------1s2-------|------5--6-7-5--6--7--||
|-0-0--0-0------0--0-|-0-0------------------||
|
| E E  E E E E  E  E   E E  E  E E E  E  E
|--------------------|----------------------||
|--------------------|-x-x-10h12-x-x-12h15--||
|-x-x-12p9-x-x-12h14-|----------------------||
|--------------------|----------------------||
|--------------------|----------------------||
|--------------------|----------------------||


 2nd Verse
  N.C.
  Gtr I
   W           +Q   E E E E E E     Q.   +E    +H        +Q   E E E E E E
|-----------|-------------------|---------------------|-------------------|
|-----------|-------------------|---------------------|-------------------|
|-----------|-------------------|---------------------|-------------------|
|-----------|-------------------|---------------------|-------------------|
|-----------|-------5-6-7-5-6-7-|---------------------|-------5-6-7-5-6-7-|
|--0--------|--(0)--------------|---6----(6)b8r(6)----|--(6)--------------|
|
| Gtr II
|  W           +Q   E E E E E E     Q.   +E    +H        +Q   E E E E E E
|-----------|-------------------|---------------------|-------------------|
|-----------|-------------------|---------------------|-------------------|
|-----------|-------------------|---------------------|-------------------|
|-----------|-------4-5-6-4-5-6-|---------------------|-------4-5-6-4-5-6-|
|-----------|-------------------|---5----(5)b7r(5)----|--(5)--------------|
|--0--------|--(0)--------------|---------------------|-------------------|
|
| Gtr III
|  ~~~~~~~~~~~~~~~~~~~~~~~~~~~~~~~~~~~~~~~~~~~~~~~~~~~~~~~~~~
|  W           +W                  +W                    +W
|-----------|-------------------|---------------------|-------------------|
|-15--------|-(15)--------------|-(15)----------------|-(15)--------------|
|-----------|-------------------|---------------------|-------------------|
|-----------|-------------------|---------------------|-------------------|
|-----------|-------------------|---------------------|-------------------|
|-----------|-------------------|---------------------|-------------------|


                                                           D.S. al Coda
                                                             PM--------|
    W            +Q   E E E E E E   Q.   +E    +H       +Q   E E E E E E
|--------------|------------------|-------------------|------------------|
|--------------|------------------|-------------------|------------------|
|--------------|------------------|-------------------|------------------|
|--------------|------------------|-------------------|------------------|
|--------------|------5-6-7-5-6-7-|-------------------|------------------|
|---0----------|-(0)--------------|-6----(6)b8r(6)----|-(6)--3-4-5-3-4-5-|
|
|                                                            PM--------|
|   W            +Q   E E E E E E   Q.   +E    +H       +Q   E E E E E E
|--------------|------------------|-------------------|------------------|
|--------------|------------------|-------------------|------------------|
|--------------|------------------|-------------------|------------------|
|--------------|------4-5-6-4-5-6-|-------------------|------------------|
|--------------|------------------|-5----(5)b7r(5)----|-(5)--------------|
|---0----------|-(0)--------------|-------------------|------3-4-5-3-4-5-|
|
|  +H..      E    W                 W                    W
|--------------|------------------|-------------------|------------------|
|-(15)s======1-|------------------|-------------------|------------------|
|--------------|------------------|-------------------|------------------|
|--------------|------------------|-------------------|------------------|
|--------------|------------------|-------------------|------------------|
|--------------|------------------|-------------------|------------------|


 Outro
  &
  E5Eb5/E5Eb5/E5Eb5/Bb
  Gtr I
      PM    PM      PM|
  E E E E E E E E   E E E E E E E E   E E E E E E E E
|-----------------|-----------------|-----------------|
|-----------------|-----------------|-----------------|
|-----------------|-----------------|-------------7-9-|
|-2s1---2s1---2s1-|-----------------|-------6-7-9-----|
|-2s1---2s1---2s1-|-----5-6-7-5-6-7-|-5-7-8-----------|
|-----0-----0-----|-0-0-------------|-----------------|
|
| Gtr II
|     PM    PM      PM|
| E E E E E E E E   E E E E E E E E   E E E E E E E E
|-----------------|-----------------|-----------------|
|-----------------|-----------------|-----------------|
|-----------------|-----------------|-------------7-9-|
|-2s1---2s1---2s1-|-----------------|-------6-7-9-----|
|-2s1---2s1---2s1-|-----5-6-7-5-6-7-|-5-7-8-----------|
|-----0-----0-----|-0-0-------------|-----------------|


  E5
     PM|   PM|   PM--|      PM|   PM  PM
   E E E E E E E E     E  E E E E E E E   Q  Q  E E Q    +Q    Q  H
|------------------|--------------------|--------------|---------------*|
|------------------|--------------------|--------------|---------------*|
|------------------|--------------------|--------------|---------------*|
|------------------|--------------------|-9--9----9-9--|-(9)\----------*|
|--2-----2-----2---|------2-----2---2---|-7--7----7-7--|-(7)\----------*|
|--0-0-0-0-0-0-0-0-|---0--0-0-0-0-0-0-0-|--------------|---------------*|
|
|  ~~~~~~~~~~~~~~~~~~~~~~~
|  W                  +W                  Q  Q  E E Q    +Q    Q  H
|------------------|--------------------|--------------|---------------*|
|------------------|--------------------|--------------|---------------*|
|-10---------------|-(10)---------------|--------------|---------------*|
|------------------|--------------------|-9--9----9-9--|-(9)\----------*|
|------------------|--------------------|-7--7----7-7--|-(7)\----------*|
|------------------|--------------------|--------------|---------------*|



Duration Legend
---------------
W - whole; H - half; Q - quarter; E - 8th; S - 16th; T - 32nd; X - 64th; a - acciaccatura
+ - note tied to previous; . - note dotted; .. - note double dotted
Uncapitalized letters represent notes that are staccato (1/2 duration)
Irregular groupings are notated above the duration line
Duration letters will always appear directly above the note/fret number it represents the
duration for.  Duration letters with no fret number below them represent rests.  Multi-
bar rests are notated in the form Wxn, where n is the number of bars to rest for.  Low
melody durations appear below the staff

Tablature Legend
----------------
 h   - hammer-on
 p   - pull-off
 b   - bend
 pb  - pre-bend
 r   - bend release (if no number after the r, then release immediately)
 /\  - slide into or out of (from/to "nowhere")
 s   - legato slide
 S   - shift slide
 - natural harmonic
[n]  - artificial harmonic
n(n) - tapped harmonic
 ~   - vibrato
 tr  - trill
 T   - tap
 TP  - trem. picking
 PM  - palm muting
\n/  - tremolo bar dip; n = amount to dip
 \n  - tremolo bar down
 n/  - tremolo bar up
/n\  - tremolo bar inverted dip
 =   - hold bend; also acts as connecting device for hammers/pulls
 <> - volume swell (louder/softer)
 x   - on rhythm slash represents muted slash
 o   - on rhythm slash represents single note slash

Misc Legend
-----------
 |  - bar
||  - double bar
||o - repeat start
o|| - repeat end
*|  - double bar (ending)
 :  - bar (freetime)
 $  - Segno
 &  - Coda
Tempo markers -  = BPM(8/16=s8/s16), where s8 = swing 8ths, s16 = swing 16ths

I want to post or [tab]
guest
You may want to rate the tab now too:
select rating
Please do not post tabs as comments. Select "correction" instead!