Oops, an error
Loading. Please wait.

Packaged Rebellion Tab

ver1
ver1

Whole song

Interactive

More versions @911Tabs.com
947 views 1 this week
no commentswrite comment
1 2 3 4 5
excellent!
x 2
Autoscroll
+/-
esc
set tempo
stop
Contributor
Tuning
D# G# C# F# A# D#
Hey! There's an official Ultimate Guitar app which is ideal
for learning songs when you're away from computer. Get the app
WARNING: You are trying to view
                                    content from Ultimate-Guitar.com
                                    in an unauthorized application,
                                    which is prohibited.

                                    Please use an official Ultimate
                                    Guitar Tabs application for iPhone,
                                    iPad or Android to access legitimate
                                    chords, guitar, bass, and drum tabs
                                    from Ultimate-Guitar.com database.

                                    Type "ultimate guitar tabs" in Apple
                                    App Store's or Android Market's
                                    search to find the application.
#----------------------------------PLEASE NOTE---------------------------------#
#This file is the author's own work and represents their interpretation of the #
#song. You may only use this file for private study, scholarship, or research. #
#------------------------------------------------------------------------------#

PACKAGED REBELLION
As recorded by Anthrax
(From the 1993 Album SOUND OF WHITE NOISE)

Transcribed by Mike Sheehan
	

Words and Music by Charlie Benante, John Bush & Scott Ian

E5
0 2 x x x x
	
G5
3 5 5 x x x
	
Bb5
6 8 x x x x
	
B5
7 9 x x x x

D5
x 5 7 x x x
	
E5VII
0 7 9 x x x
	
E/Ab
x x 6 4 5 x
	
A5/B
7 7 7 x x x

A/C#
x 4 2 2 2 x
	
Dsus2
x 5 2 2 3 x
	
B/Eb
x 6 4 4 4 x
	
Esus2
x 7 4 4 5 x

Gtr I (Eb Ab Db Gb Bb Eb) - 'Scott Ian Clean'
Gtr II (Eb Ab Db Gb Bb Eb) - 'Dan Spitz Distortion'
Gtr III (Eb Ab Db Gb Bb Eb) - 'Scott Ian Distortion'
Gtr IV (Eb Ab Db Gb Bb Eb) - 'Overdubs'
Gtr V (Eb Ab Db Gb Bb Eb) - 'Dan Spitz Lead'

   Intro
    Q=140
    A/C#              Dsus2             B/Eb              Esus2
   4/4
    Gtr I
    E E E E E E E E   E E E E E E E E   E E E E E E E E   E E E E E E E E   3x
||------------------|-----------------|-----------------|-------------------||
||o-------2---------|-------3---------|-------4---------|-------5----------o||
||------2---2-------|-----2---2-------|-----4---4-------|-----4---4---------||
||----2-------2---2-|---2-------2---2-|---4-------4---4-|---4-------4---4---||
||o-4-----------4---|-5-----------5---|-6-----------6---|-7-----------7----o||
||------------------|-----------------|-----------------|-------------------||
|
|   Gtr II
|   <                 <                 <                 <
|   W                 W                 W                 W                 3x
||------------------|-----------------|-----------------|-------------------||
||o-----------------|-----------------|-----------------|------------------o||
||------------------|-----------------|-----------------|-------------------||
||------------------|-----------------|-----------------|-------------------||
||o-4---------------|-5---------------|-6---------------|-7----------------o||
||------------------|-----------------|-----------------|-------------------||


  A/C#              Dsus2             B/Eb              E/Ab
  E E E E E E E E   E E E E E E E E   E E E E E E E E    W
|-----------------|-----------------|-----------------|-------||
|-------2---------|-------3---------|-------4---------|-^5----||
|-----2---2-------|-----2---2-------|-----4---4-------|-^4----||
|---2-------2---2-|---2-------2---2-|---4-------4---4-|-^6----||
|-4-----------4---|-5-----------5---|-6-----------6---|-------||
|-----------------|-----------------|-----------------|-------||
|
| <                 <                 <
| W                 W                 W                  W
|-----------------|-----------------|-----------------|-------||
|-----------------|-----------------|-----------------|-------||
|-----------------|-----------------|-----------------|-------||
|-----------------|-----------------|-----------------|-------||
|-4---------------|-5---------------|-6---------------|--7----||
|-----------------|-----------------|-----------------|-------||


    A/C#              Dsus2             B/Eb              Esus2
    Gtr I
    E E E E E E E E   E E E E E E E E   E E E E E E E E   E E E E E E E E  4x
||------------------|-----------------|-----------------|------------------||
||o-----------------|-----------------|-----------------|-----------------o||
||------------------|-----------------|-----------------|------------------||
||------2-----2-----|-----2-----2-----|-----4-----4-----|-----4-----4------||
||o---2-----2-----2-|---2-----2-----2-|---4-----4-----4-|---4-----4-----4-o||
||--4-----4-----4---|-5-----5-----5---|-6-----6-----6---|-7-----7-----7----||
|
|   Gtr II
|   W                 W                 W                 W                4x
||------------------|-----------------|-----------------|------------------||
||o-----------------|-----------------|-----------------|-----------------o||
||------------------|-----------------|-----------------|------------------||
||------------------|-----------------|-----------------|------------------||
||o-----------------|-----------------|-----------------|-----------------o||
||--4---------------|-5---------------|-6---------------|-7----------------||
|
|   Gtr IV
|   ~~~~~~~~~~~~~~~~~~~~~~~~~~~~~~~~~~~~~~~~~~~~~~~~~~~~~~~~
|   W                 W                 W                 W                4x
||------------------|-----------------|-----------------|------------------||
||o-----------------|-----------------|-----------------|-----------------o||
||------------------|-----------------|-----------------|------------------||
||------------------|-----------------|-----------------|------------------||
||o-6---------------|-7---------------|-8---------------|-9---------------o||
||------------------|-----------------|-----------------|------------------||


  N.C.
  Gtrs II, III
  Q  E E H      Q  E E H      Q  E E H      Q  E E H
|-------------|-------------|-------------|-------------|
|-------------|-------------|-------------|-------------|
|-------------|-------------|-------------|-------------|
|-------------|-------------|-------------|-------------|
|----5-7-5----|----5-7-5----|----5-7-5----|----2-4-2----|
|-7-----------|-6-----------|-5-----------|-4-----------|


  G5                         A5/B
   W          +W              E   E   E   E   E   E   E   E   3x
|-----------|------------||-----------------------------------||
|-----------|------------||o---------------------------------o||
|-----------|------------||-----------------------------------||
|-^5--------|-(5)--------||--<7>-<7>-<7>-<7>-<7>-<7>-<7>-<7>--||
|-^5--------|-(5)--------||o-<7>-<7>-<7>-<7>-<7>-<7>-<7>-<7>-o||
|-^3--------|-(3)--------||--<7>-<7>-<7>-<7>-<7>-<7>-<7>-<7>--||


                      B5BbB5
   E   E   E   E   E  E E E
|----------------------------||
|----------------------------||
|----------------------------||
|-<7>-<7>-<7>-<7>-<7>--------||
|-<7>-<7>-<7>-<7>-<7>-9-8-9--||
|-<7>-<7>-<7>-<7>-<7>-7-6-7--||


   Verse
    Q=150
        BbB5    BbB5      BbB5    BbB5      BbB5    BbB5      BbB5    BbB5
    E E E E E E E E   E E E E E E E E   E E E E E E E E   E E E E E E E E
||------------------|-----------------|-----------------|-----------------|
||o-----------------|-----------------|-----------------|-----------------|
||------------------|-----------------|-----------------|-----------------|
||------------------|-----------------|-----------------|-----------------|
||o---9-8-9---9-8-9-|---9-8-9---9-8-9-|---9-8-9---9-8-9-|---9-8-9---9-8-9-|
||----7-6-7---7-6-7-|---7-6-7---7-6-7-|---7-6-7---7-6-7-|---7-6-7---7-6-7-|


      BbN.C.  B5BbB5      BbN.C.  B5BbB5
        ~~~~~~              ~~~~~~
  E E E E +E  E E E   E E E E +E  E E E
|-------------------|-------------------|
|-------------------|-------------------|
|-------------------|-------------------|
|-------------------|-------------------|
|---9-8-5-(5)-9-8-9-|---9-8-5-(5)-9-8-9-|
|---7-6-------7-6-7-|---7-6-------7-6-7-|


      BbN.C.  B5BbB5      BbN.C.  B5BbN.C.
        ~~~~~~              ~~~~~~    PM
  E E E E +E  E E E   E E E E +E  E E E
|-------------------|--------------------|
|-------------------|--------------------|
|-------------------|--------------------|
|-------------------|--------------------|
|---9-8-5-(5)-9-8-9-|---9-8-5-(5)-9-8----|
|---7-6-------7-6-7-|---7-6-------7-6-0--|


                              B5BbB5      BbN.C.  B5BbB5      BbN.C.  B5BbB5
  PM------------------------|               ~~~~~~              ~~~~~~
  E E E E E E E E   E E E E E E E E   E E E E +E  E E E   E E E E +E  E E E
|-----------------|-----------------|-------------------|--------------------|
|-----------------|-----------------|-------------------|--------------------|
|-----------------|-----------------|-------------------|--------------------|
|-----------------|-----------------|-------------------|--------------------|
|-----------------|-----------9-8-9-|---9-8-5-(5)-9-8-9-|---9-8-5-(5)-9-8-9--|
|-0-0-0-0-0-0-0-0-|-0-0-0-0-0-7-6-7-|---7-6-------7-6-7-|---7-6-------7-6-7--|


      BbN.C.  B5BbB5      BbN.C.  B5BbN.C.
        ~~~~~~              ~~~~~~    PM----------------------------------|
  E E E E +E  E E E   E E E E +E  E E E   E E E E E E E E   E E E E E E E E
|-------------------|-------------------|-----------------|------------------||
|-------------------|-------------------|-----------------|------------------||
|-------------------|-------------------|-----------------|------------------||
|-------------------|-------------------|-----------------|------------------||
|---9-8-5-(5)-9-8-9-|---9-8-5-(5)-9-8---|-----------------|------------------||
|---7-6-------7-6-7-|---7-6-------7-6-0-|-0-0-0-0-0-0-0-0-|-0-0-0-0-0-0-0-0--||


 Pre Chorus
                                  E5N.C.
  PM|    PM|      PM|    PM|        PM----------------------------|
  E E Q  E E Q    E E Q  E E Q    E E E E E E E E   E E E E E E E E
|---------------|---------------|-----------------|------------------|
|---------------|---------------|-----------------|------------------|
|---------------|---------------|-----------------|------------------|
|---------------|---------------|-----------------|------------------|
|-----5------5--|-----5------5--|-2---------------|------------------|
|-7-7----5-5----|-3-3----2-2----|-0-0-0-0-0-0-0-0-|-0-0-0-0-0-0-0-0--|


                                  E5N.C.
  PM|    PM|      PM|    PM|        PM----------------------------|
  E E Q  E E Q    E E Q  E E Q    E E E E E E E E   E E E E E E E E
|---------------|---------------|-----------------|------------------|
|---------------|---------------|-----------------|------------------|
|---------------|---------------|-----------------|------------------|
|---------------|---------------|-----------------|------------------|
|-----5------5--|-----5------5--|-2---------------|------------------|
|-7-7----5-5----|-3-3----2-2----|-0-0-0-0-0-0-0-0-|-0-0-0-0-0-0-0-0--|


  PM|    PM|      PM|    PM|      PM|    PM|      PM|    PM|
  E E Q  E E Q    E E Q  E E Q    E E Q  E E Q    E E Q  E E Q
|---------------|---------------|---------------|----------------|
|---------------|---------------|---------------|----------------|
|---------------|---------------|---------------|----------------|
|---------------|---------------|---------------|----------------|
|-----5------5--|-----5------5--|-----5------5--|-----5------5---|
|-7-7----5-5----|-3-3----2-2----|-7-7----5-5----|-3-3----2-2-----|


  1.
                                      E5VII
  E E E E E E E E   E E E E E E E E   E E E E E E E E   E E E E E E E E
|-----------------|-----------------|-----------------|------------------||
|-----------------|-----------------|-----------------|------------------||
|-----------------|-----------------|-----------------|------------------||
|-----------------|-----------------|-9-9-9-9-9-9-9-9-|-9-9-9-9-9-9-9-9--||
|-----------------|-----------------|-7-7-7-7-7-7-7-7-|-7-7-7-7-7-7-7-7--||
|-7-7-7-7-5-5-5-5-|-3-3-3-3-2-2-2-2-|-0-0-0-0-0-0-0-0-|-0-0-0-0-0-0-0-0--||


 Chorus
  N.C.
  Gtr II
  Q  E E Q.   E   +Q   E E Q.   E   +Q   E E Q.   E   +Q   E E E    +E  +E  E
|---------------|-----------------|-----------------|--------------------------|
|---------------|-----------------|-----------------|--------------------------|
|---------------|-----------------|-----------------|--------------------------|
|---------------|-----------------|-----------------|--------------------------|
|----5-7-5------|------5-7-5------|------5-7-5------|------5-7-7b9==(7)r(7)----|
|-7-----------6-|-(6)-----------5-|-(5)-----------4-|-(4)-------------------7--|
|
| Gtr III
| Q  E E Q.   E   +Q   E E Q.   E   +Q   E E Q.   E   +Q   E E E    +E  +E  E
|---------------|-----------------|-----------------|--------------------------|
|---------------|-----------------|-----------------|--------------------------|
|---------------|-----------------|-----------------|--------------------------|
|----4-5-4------|------4-5-4------|------4-5-4------|------4-5-5b7==(5)r(5)----|
|---------------|-----------------|-----------------|--------------------------|
|-7-----------6-|-(6)-----------5-|-(5)-----------4-|-(4)-------------------7--|


  +Q   E E Q.   E   +Q   E E Q.   E
|-----------------|-----------------|
|-----------------|-----------------|
|-----------------|-----------------|
|-----------------|-----------------|
|------5-7-5------|------5-7-5------|
|-(7)-----------6-|-(6)-----------5-|
|
| +Q   E E Q.   E   +Q   E E Q.   E
|-----------------|-----------------|
|-----------------|-----------------|
|-----------------|-----------------|
|------4-5-4------|------4-5-4------|
|-----------------|-----------------|
|-(7)-----------6-|-(6)-----------5-|


  +Q   E E Q.   E   +Q   E E E    +E  +E  E
|-----------------|--------------------------|
|-----------------|--------------------------|
|-----------------|--------------------------|
|-----------------|--------------------------|
|------5-7-5------|------5-7-7b9==(7)r(7)----|
|-(5)-----------4-|-(4)-------------------7--|
|
| +Q   E E Q.   E   +Q   E E E    +E  +E  E
|-----------------|--------------------------|
|-----------------|--------------------------|
|-----------------|--------------------------|
|------4-5-4------|------4-5-5b7==(5)r(5)----|
|-----------------|--------------------------|
|-(5)-----------4-|-(4)-------------------7--|


  +E  E E E Q  E E   +E  E E E Q  E E
|------------------|------------------|
|------------------|------------------|
|------------------|------------------|
|------------------|------------------|
|-------5-7-5--7---|-------5-7-5--7---|
|-(7)-7----------6-|-(6)-6----------5-|
|
| +E  E E E Q  E E   +E  E E E Q  E E
|------------------|------------------|
|------------------|------------------|
|------------------|------------------|
|-------4-5-4--5---|-------4-5-4--5---|
|------------------|------------------|
|-(7)-7----------6-|-(6)-6----------5-|


  +E  E E E Q  E E   +E  E E E E    +E  +E  E
|------------------|---------------------------|
|------------------|---------------------------|
|------------------|---------------------------|
|------------------|---------------------------|
|-------5-7-5--7---|-------5-7-7b9==(7)r(7)----|
|-(5)-5----------4-|-(4)-4------------------7--|
|
| +E  E E E Q  E E   +E  E E E E    +E  +E  E
|------------------|---------------------------|
|------------------|---------------------------|
|------------------|---------------------------|
|-------4-5-4--5---|-------4-5-5b7==(5)r(5)----|
|------------------|---------------------------|
|-(5)-5----------4-|-(4)-4------------------7--|


  +E  E E E Q  E E   +E  E E E Q  E E   +E  E E E Q  E E   +E  E E E Q  Q
|------------------|------------------|------------------|------------------|
|------------------|------------------|------------------|------------------|
|------------------|------------------|------------------|------------------|
|------------------|------------------|------------------|------------------|
|-------5-7-5--7---|-------5-7-5--7---|-------5-7-5--7---|-------2-4-2------|
|-(7)-7----------6-|-(6)-6----------5-|-(5)-5----------4-|-(4)-4--------4---|
|
| +E  E E E Q  E E   +E  E E E Q  E E   +E  E E E Q  E E   +E  E E E Q  Q
|------------------|------------------|------------------|------------------|
|------------------|------------------|------------------|------------------|
|------------------|------------------|------------------|------------------|
|-------4-5-4--5---|-------4-5-4--5---|-------4-5-4--5---|------------------|
|------------------|------------------|------------------|-------2-4-2------|
|-(7)-7----------6-|-(6)-6----------5-|-(5)-5----------4-|-(4)-4--------4---|


                                  2.
  G5                     B5BbB5    N.C.
  Gtrs II, III
   W          +H     +E  E E E     S S S S S S S S S S S S S S S S
|-----------|-------------------||---------------------------------|
|-----------|------------------o||---------------------------------|
|-----------|-------------------||---------------------------------|
|-^5--------|-(5)----(5)--------||---------------------------------|
|-^5--------|-(5)----(5)-9-8-9-o||---------------------------------|
|-^3--------|-(3)----(3)-7-6-7--||-7-7-7-7-7-7-7-7-5-5-5-5-5-5-5-5-|


                                    E5VII
  S S S S S S S S S S S S S S S S   E E E E E E E E   E E E E E E E E
|---------------------------------|-----------------|-----------------||
|---------------------------------|-----------------|-----------------||
|---------------------------------|-----------------|-----------------||
|---------------------------------|-9-9-9-9-9-9-9-9-|-9-9-9-9-9-9-9-9-||
|---------------------------------|-7-7-7-7-7-7-7-7-|-7-7-7-7-7-7-7-7-||
|-3-3-3-3-3-3-3-3-2-2-2-2-2-2-2-2-|-0-0-0-0-0-0-0-0-|-0-0-0-0-0-0-0-0-||


  N.C.
  Gtr II
  Q  E E Q.   E   +Q   E E Q.   E   +Q   E E Q.   E   +Q   E E E    +E  +E  E
|---------------|-----------------|-----------------|--------------------------|
|---------------|-----------------|-----------------|--------------------------|
|---------------|-----------------|-----------------|--------------------------|
|---------------|-----------------|-----------------|--------------------------|
|----5-7-5------|------5-7-5------|------5-7-5------|------5-7-7b9==(7)r(7)----|
|-7-----------6-|-(6)-----------5-|-(5)-----------4-|-(4)-------------------7--|
|
| Gtr III
| Q  E E Q.   E   +Q   E E Q.   E   +Q   E E Q.   E   +Q   E E E    +E  +E  E
|---------------|-----------------|-----------------|--------------------------|
|---------------|-----------------|-----------------|--------------------------|
|---------------|-----------------|-----------------|--------------------------|
|----4-5-4------|------4-5-4------|------4-5-4------|------4-5-5b7==(5)r(5)----|
|---------------|-----------------|-----------------|--------------------------|
|-7-----------6-|-(6)-----------5-|-(5)-----------4-|-(4)-------------------7--|


  +Q   E E Q.   E   +Q   E E Q.   E
|-----------------|-----------------|
|-----------------|-----------------|
|-----------------|-----------------|
|-----------------|-----------------|
|------5-7-5------|------5-7-5------|
|-(7)-----------6-|-(6)-----------5-|
|
| +Q   E E Q.   E   +Q   E E Q.   E
|-----------------|-----------------|
|-----------------|-----------------|
|-----------------|-----------------|
|------4-5-4------|------4-5-4------|
|-----------------|-----------------|
|-(7)-----------6-|-(6)-----------5-|


  +Q   E E Q.   E   +Q   E E E    +E  +E  E
|-----------------|--------------------------|
|-----------------|--------------------------|
|-----------------|--------------------------|
|-----------------|--------------------------|
|------5-7-5------|------5-7-7b9==(7)r(7)----|
|-(5)-----------4-|-(4)-------------------7--|
|
| +Q   E E Q.   E   +Q   E E E    +E  +E  E
|-----------------|--------------------------|
|-----------------|--------------------------|
|-----------------|--------------------------|
|------4-5-4------|------4-5-5b7==(5)r(5)----|
|-----------------|--------------------------|
|-(5)-----------4-|-(4)-------------------7--|


  +E  E E E Q  E E   +E  E E E Q  E E
|------------------|------------------|
|------------------|------------------|
|------------------|------------------|
|------------------|------------------|
|-------5-7-5--7---|-------5-7-5--7---|
|-(7)-7----------6-|-(6)-6----------5-|
|
| +E  E E E Q  E E   +E  E E E Q  E E
|------------------|------------------|
|------------------|------------------|
|------------------|------------------|
|-------4-5-4--5---|-------4-5-4--5---|
|------------------|------------------|
|-(7)-7----------6-|-(6)-6----------5-|


  +E  E E E Q  E E   +E  E E E E    +E  +E  E
|------------------|---------------------------|
|------------------|---------------------------|
|------------------|---------------------------|
|------------------|---------------------------|
|-------5-7-5--7---|-------5-7-7b9==(7)r(7)----|
|-(5)-5----------4-|-(4)-4------------------7--|
|
| +E  E E E Q  E E   +E  E E E E    +E  +E  E
|------------------|---------------------------|
|------------------|---------------------------|
|------------------|---------------------------|
|-------4-5-4--5---|-------4-5-5b7==(5)r(5)----|
|------------------|---------------------------|
|-(5)-5----------4-|-(4)-4------------------7--|


  +E  E E E Q  E E   +E  E E E Q  E E   +E  E E E Q  E E   +E  E E E Q  Q
|------------------|------------------|------------------|------------------||
|------------------|------------------|------------------|------------------||
|------------------|------------------|------------------|------------------||
|------------------|------------------|------------------|------------------||
|-------5-7-5--7---|-------5-7-5--7---|-------5-7-5--7---|-------2-4-2------||
|-(7)-7----------6-|-(6)-6----------5-|-(5)-5----------4-|-(4)-4--------4---||
|
| +E  E E E Q  E E   +E  E E E Q  E E   +E  E E E Q  E E   +E  E E E Q  Q
|------------------|------------------|------------------|------------------||
|------------------|------------------|------------------|------------------||
|------------------|------------------|------------------|------------------||
|-------4-5-4--5---|-------4-5-4--5---|-------4-5-4------|-------2-4-2------||
|------------------|------------------|--------------7---|--------------4---||
|-(7)-7----------6-|-(6)-6----------5-|-(5)-5----------4-|-(4)-4------------||


  G5
  W                         +W
|-------------------------|---------------------------|
|-------------------------|---------------------------|
|-------------------------|---------------------------|
|-------------------------|---------------------------|
|-5-----------------------|-(5)-----------------------|
|-3-----------------------|-(3)-----------------------|
|
| PM---------------------------------------------------
| S S E S S E S S E S S E    S  S E S S E S S E S S E
|-------------------------|---------------------------|
|-------------------------|---------------------------|
|-------------------------|---------------------------|
|-------------------------|---------------------------|
|-5-5-5-5-5-5-5-5-5-5-5-5-|--5--5-5-5-5-5-5-5-5-5-5-5-|
|-3-3-3-3-3-3-3-3-3-3-3-3-|--3--3-3-3-3-3-3-3-3-3-3-3-|


  +W                          +W
|---------------------------|------------------------------||
|---------------------------|------------------------------||
|---------------------------|------------------------------||
|---------------------------|------------------------------||
|-(5)-----------------------|-(5)--------------------------||
|-(3)-----------------------|-(3)--------------------------||
|
|-----------------------------------------------------|
|  S  S E S S E S S E S S E    S  S E S S E S S E S S E
|---------------------------|------------------------------||
|---------------------------|------------------------------||
|---------------------------|------------------------------||
|---------------------------|------------------------------||
|--5--5-5-5-5-5-5-5-5-5-5-5-|--5--5-5-5-5-5-5-5-5-5-5-5----||
|--3--3-3-3-3-3-3-3-3-3-3-3-|--3--3-3-3-3-3-3-3-3-3-3-3----||


   Bridge
    B5
    Gtrs II, III
    PM|   PM|   PM|   PM|
    S S E S S E S S E S S E
||--------------------------|
||o-------------------------|
||--------------------------|
||--------------------------|
||o-9-9---9-9---9-9---9-9---|
||--7-7---7-7---7-7---7-7---|


  PM|   PM|   PM|   PM|     PM|   PM|   PM|   PM|
  S S E S S E S S E S S E   S S E S S E S S E S S E
|-------------------------|---------------------------|
|-------------------------|---------------------------|
|-------------------------|---------------------------|
|-------------------------|---------------------------|
|-9-9---9-9---9-9---9-9---|-9-9---9-9---9-9---9-9-----|
|-7-7---7-7---7-7---7-7---|-7-7---7-7---7-7---7-7-----|


  1.,2.
                  BbB5        BbD5    B5BbB5
  Gtr II
  PM|   PM|   PM
  S S E S S E E E E E   +E  E E E +E  E E E
|---------------------|---------------------|
|---------------------|---------------------|
|---------------------|---------------------|
|---------------------|---------7-(7)-------|
|-9-9---9-9---9-9-8-9-|-(9)-9-8-5-(5)-9-8-9-|
|-7-7---7-7---7-7-6-7-|-(7)-7-6-------7-6-7-|
|
| Gtr III
| PM|   PM|   PM
| S S E S S E E E E E   +E  E E E +E  E E E
|---------------------|---------------------|
|---------------------|---------------------|
|---------------------|---------------------|
|---------------------|---------7-(7)-------|
|-9-9---9-9---9-9-8-9-|-(9)-9-8-5-(5)-9-8-9-|
|-7-7---7-7---7-7-6-7-|-(7)-7-6-------7-6-7-|


                         3.
        BbD5    B5BbB5                    BbB5
                                            Gtr V
                          PM|   PM|         ~
  +E  E E E +E  E E E  3x S S E S S E E E E E
|----------------------||-----------------------||
|---------------------o||-------------------7---||
|----------------------||-------------------7---||
|---------7-(7)--------||-----------------------||
|-(9)-9-8-5-(5)-9-8-9-o||-9-9---9-9---9-9-8-----||
|-(7)-7-6-------7-6-7--||-7-7---7-7---7-7-6-----||
|
|                         PM|   PM|   PM
| +E  E E E +E  E E E  3x S S E S S E E E E E
|----------------------||-----------------------||
|---------------------o||-----------------------||
|----------------------||-----------------------||
|---------7-(7)--------||-----------------------||
|-(9)-9-8-5-(5)-9-8-9-o||-9-9---9-9---9-9-8-9---||
|-(7)-7-6-------7-6-7--||-7-7---7-7---7-7-6-7---||


 Guitar Solo
  Q=160
         BbD5    B5BbB5        BbD5    B5BbB5
  Gtr V
   ~~~~~~~~~~~~~~~~~~~~~~~~~~
  +H..               E   +H        +E  E E E
|----------------------|-------------------------|
|-(7)------------------|-------------------9b11==|
|-(7)------------------|-----------------7-9b11==|
|--------------------9-|-(9)-------(9)-9---------|
|----------------------|-------------------------|
|----------------------|-------------------------|
|
| Gtr III
| +E   E E E +E  E E E   +E  E E E +E  E E E
|----------------------|-------------------------|
|----------------------|-------------------------|
|----------------------|-------------------------|
|----------7-(7)-------|---------7-(7)-----------|
|-(9)--9-8-5-(5)-9-8-9-|-(9)-9-8-5-(5)-9-8-9-----|
|-(7)--7-6-------7-6-7-|-(7)-7-6-------7-6-7-----|


        BbD5    B5  BbB5         BbD5    B5BbB5
   ~~~                ~
  +H        +E  +E  E E   +H          Q    E E
|-----------------------|-----------------------|
|-(9)-------(9)r(9)-----|-----------------------|
|-(9)-------(9)r(9)-7---|-----------------------|
|---------------------9-|-(9)\-------------0-2--|
|-----------------------|-----------------------|
|-----------------------|-----------------------|
|
| +E  E E E +E   E  E E   +E   E E E +E  E E E
|-----------------------|-----------------------|
|-----------------------|-----------------------|
|-----------------------|-----------------------|
|---------7-(7)---------|----------7-(7)--------|
|-(9)-9-8-5-(5)--9--8-9-|-(9)--9-8-5-(5)-9-8-9--|
|-(7)-7-6--------7--6-7-|-(7)--7-6-------7-6-7--|


        BbD5    B5BbB5            BbD5    B5Bb5 B5
                                    ~~~~~~
                         |-3--|
   Q    E E +E  E E E    S  S S E E E +Q     E  E
|---------------------|---------------------------|
|---------------------|---------------------[3]-5-|
|-----------------2-4-|--2h=4p2---2-4-(4)---------|
|--0----0-2-(2)-4-----|---------4-----------------|
|---------------------|---------------------------|
|---------------------|---------------------------|
|
| +E  E E E +E  E E E   +E      E E E +E  E  E  E
|---------------------|---------------------------|
|---------------------|---------------------------|
|---------------------|---------------------------|
|---------7-(7)-------|-------------7-(7)---------|
|-(9)-9-8-5-(5)-9-8-9-|-(9)-----9-8-5-(5)-9--8--9-|
|-(7)-7-6-------7-6-7-|-(7)-----7-6-------7--6--7-|


            BbD5           B5    Bb5B5            Bb5D5       B5BbB5
            ~                                            ~~~~~
   |-3--|
   S  S S E E    E   S   S  S  S  E   E    E    E  E  E  Q.        S  S
|---------------------------------------|-12------14---------------------|
|--3h=5p3---3-------10h=12p10----10-----|-----/17----17-17b19-----14-14--|
|---------4---/[11]-----------11----/15-|--------------------------------|
|---------------------------------------|--------------------------------|
|---------------------------------------|--------------------------------|
|---------------------------------------|--------------------------------|
|
| +E      E E    E  +E      E     E   E   +E    E  E  E +E    E E  E
|---------------------------------------|--------------------------------|
|---------------------------------------|--------------------------------|
|---------------------------------------|--------------------------------|
|----------------7--(7)-----------------|-------------7-(7)--------------|
|-(9)-----9-8----5--(5)-----9-----8---9-|-(9)---9--8--5-(5)---9-8--9-----|
|-(7)-----7-6---------------7-----6---7-|-(7)---7--6----------7-6--7-----|


               Bb5   D5           B5    Bb5   B5                Bb5   D5        B5    BbB5
   S   S  S  S  S  S  S  S  S   S  S  S  S  S  S  S    S   E.    S  S  S  S  E   Q       +S   S
|-17--14-14-14-17-14-14-14-19--14----14----------14-|-17--14----17-14-14-14-17--17b19r==(17)p14-|
|---------------------------------17----17-15-17----|-------------------------------------------|
|---------------------------------------------------|-------------------------------------------|
|---------------------------------------------------|-------------------------------------------|
|---------------------------------------------------|-------------------------------------------|
|---------------------------------------------------|-------------------------------------------|
|
| +E      E     E     E    +E      E     E     E      +E      E  E     E    +E   E    E   E
|---------------------------------------------------|-------------------------------------------|
|---------------------------------------------------|-------------------------------------------|
|---------------------------------------------------|-------------------------------------------|
|---------------------7----(7)----------------------|------------------7----(7)-----------------|
|-(9)-----9-----8-----5----(5)-----9-----8-----9----|-(9)-----9--8-----5----(5)--9----8---9-----|
|-(7)-----7-----6------------------7-----6-----7----|-(7)-----7--6---------------7----6---7-----|


               Bb5   D5           B5    Bb5   B5
   S   S  S  S  S  S  S  S  S   S  S  S  S  S  S  S
|-17--14----14-17-14-14-14-19--14----14----------------|
|--------17-----------------------17----17-14-17-17b19-|
|------------------------------------------------------|
|------------------------------------------------------|
|------------------------------------------------------|
|------------------------------------------------------|
|
| +E      E     E     E    +E      E     E     E
|------------------------------------------------------|
|------------------------------------------------------|
|------------------------------------------------------|
|---------------------7----(7)-------------------------|
|-(9)-----9-----8-----5----(5)-----9-----8-----9-------|
|-(7)-----7-----6------------------7-----6-----7-------|


         BbD5    B5Bb5  B5            Bb5 D5         B5         Bb5B5
   +H.              +Q       S   S  E  E.    S  S  S  S     +S   E S S
|-------------------------|--------------------------------------------|
|-(17)-------------(17)---|-16p=14----14----14-16----------------------|
|-------------------------|-16p=14----14----14-16----14b16r(14)--------|
|-------------------------|--------16---------------------------16-x-x-|
|-------------------------|--------------------------------------------|
|-------------------------|--------------------------------------------|
|
|  +E  E E E +E  E   E  E   +E      E  E  E    +E     E          E E
|-------------------------|--------------------------------------------|
|-------------------------|--------------------------------------------|
|-------------------------|--------------------------------------------|
|----------7-(7)----------|---------------7----(7)---------------------|
|--(9)-9-8-5-(5)-9---8--9-|-(9)-----9--8--5----(5)----9----------8-9---|
|--(7)-7-6-------7---6--7-|-(7)-----7--6--------------7----------6-7---|


              Bb5   N.C.     B5  BbN.C.
                              ~~~
   |---3----|  |---3---|
   E   E    E  E  E    E  E   Q.
|-------------------------------------|
|-------------16-14-------------------|
|-16--14------16-14------16-----------|
|----------16---------16-----14-------|
|-------------------------------------|
|-------------------------------------|
|
|                   ~~~~~~~~~      ~
| +E     E     E    E    +E   E  E E
|-------------------------------------|
|-------------------------------------|
|-------------------------------------|
|-------------------------------------|
|-(9)----9-----8----5----(5)--9--8-5--|
|-(7)----7-----6--------------7--6----|


      B5    Bb5   N.C.     B5         Bb5   N.C.
             |---3---|
   E   S  S  E  E    E  E   S     +S   S  S   E
|------------------------------------------------|
|-16--------16-14---16-16------------------------|
|-16--14-14-16-14---16-16--14b16r(14)-------[16]-|
|-------------------------------------16-14------|
|------------------------------------------------|
|------------------------------------------------|
|
|  ~~~            ~~~~~~~~~                   ~~~~
| +E   E     E    E    +E   E          E      E
|------------------------------------------------|
|------------------------------------------------|
|------------------------------------------------|
|------------------------------------------------|
|-(5)--9-----8----5----(5)--9----------8------5--|
|------7-----6--------------7----------6---------|
|
| Gtr IV
|  W
|------------------------------------------------|
|------------------------------------------------|
|------------------------------------------------|
|------------------------------------------------|
|------------------------------------------------|
|------------------------------------------------|


                                Interlude
       B5 Bb5N.C.   B5 Bb5B5     N.C.
                           ~~~~~~~~~~~~
   +E   E  E  E  E   E  E  E      +H.           +Q
|----------------------------||------------------------|
|----------------------------||o-----------------------|
|-(16)-14--------------------||------------------------|
|---------16-14-12-----------||------------------------|
|-------------------14-12-14-||o-(14)----------(14)\---|
|----------------------------||------------------------|
|
|~~~~~~       ~~~~~~
|  +E   E  E  E +E   E  E  E       Q    E E Q    Q
|----------------------------||------------------------|
|----------------------------||o-----------------------|
|----------------------------||---------4-6-4----------|
|----------------------------||------------------------|
|--(5)--9--8--5-(5)--9--8--9-||o-----------------------|
|-------7--6---------7--6--7-||------------------------|
|
|   W                              Q    E E Q    Q
|----------------------------||------------------------|
|----------------------------||o--------4-5-4----------|
|----------------------------||------------------------|
|----------------------------||------------------------|
|----------------------------||o-----------------------|
|----------------------------||----4-----------------3-|
                                   H..               E


  Gtr II
   Q    E E Q  Q      Q    E E Q  Q
|------------------|------------------|
|-------4-5-4------|-------4-5-4------|
|------------------|------------------|
|------------------|------------------|
|------------------|------------------|
|------------------|------------------|
|
| Gtr III
|  Q    E E Q  Q      Q    E E Q  Q
|------------------|------------------|
|------------------|------------------|
|-------4-6-4------|-------4-6-4------|
|------------------|------------------|
|------------------|------------------|
|------------------|------------------|
|
| Gtr IV
|  W                  W
|------------------|------------------|
|------------------|------------------|
|------------------|------------------|
|------------------|------------------|
|------------------|------------------|
|-(3)------------2-|-(2)------------0-|
  +H..           E   +H..           E


   Q    E E Q  Q            E   E E E Q  E E
|-------------------||-||--------------------|
|-------4-5-4------o||-||o--------4-5-4--5---|
|-------------------||-||-------4------------|
|-------------------||-||--------------------|
|------------------o||-||o-------------------|
|-------------------||-||--------------------|
|
|  Q    E E Q  Q            E   E E E Q  E E
|-------------------||-||--------------------|
|------------------o||-||o-------------------|
|-------4-6-4-------||-||---------4-6-4--6---|
|-------------------||-||-------4------------|
|------------------o||-||o-------------------|
|-------------------||-||--------------------|
|
|  W                       +H..            E
|-------------------||-||--------------------|
|------------------o||-||o-------------------|
|-------------------||-||--------------------|
|-------------------||-||--------------------|
|------------------o||-||o-------------------|
|-(0)------------4--||-||--(4)-------------3-|
  +H..           E


   E   E E E Q  E E    E   E E E Q  E E
|-------------------|-------------------|
|--------4-5-4--5---|--------4-5-4--5---|
|------4------------|------4------------|
|-------------------|-------------------|
|-------------------|-------------------|
|-------------------|-------------------|
|
|  E   E E E Q  E E    E   E E E Q  E E
|-------------------|-------------------|
|-------------------|-------------------|
|--------4-6-4--6---|--------4-6-4--6---|
|------4------------|------4------------|
|-------------------|-------------------|
|-------------------|-------------------|
|
| +H..            E   +H..            E
|-------------------|-------------------|
|-------------------|-------------------|
|-------------------|-------------------|
|-------------------|-------------------|
|-------------------|-------------------|
|-(3)-------------2-|-(2)-------------0-|


 1.                    2.
                        E5VII                 N.C.
   E   E E E Q  E E     W          +H..       E
|--------------------||----------|----------------||
|--------4-5-4--5---o||----------|----------------||
|------4-------------||----------|----------------||
|--------------------||-9--------|-(9)------------||
|-------------------o||-7--------|-(7)------------||
|--------------------||-0--------|-(0)--------7---||
|
|  E   E E E Q  E E     W          +H..       E
|--------------------||----------|----------------||
|-------------------o||----------|----------------||
|--------4-6-4--6----||----------|----------------||
|------4-------------||-9--------|-(9)------------||
|-------------------o||-7--------|-(7)------------||
|--------------------||-0--------|-(0)--------7---||
|
| +H..            E     W           W
|--------------------||----------|----------------||
|-------------------o||----------|----------------||
|--------------------||----------|----------------||
|--------------------||----------|----------------||
|-------------------o||----------|----------------||
|-(0)-------------4--||----------|----------------||


   Chorus
    Gtrs II, III
    +E  E E E Q.   E   +E  E E E Q.   E
||-------------------|------------------|
||o------------------|------------------|
||-------------------|------------------|
||-------------------|------------------|
||o-------5-7-5------|-------5-7-5------|
||--(7)-7----------6-|-(6)-6----------5-|


  +E  E E E Q.   E   +E  E E E E    +E  +E  E
|------------------|---------------------------||
|------------------|--------------------------o||
|------------------|---------------------------||
|------------------|---------------------------||
|-------5-7-5------|-------5-7-7b9==(7)r(7)---o||
|-(5)-5----------4-|-(4)-4------------------7--||


  +E  E E E Q  E E   +E  E E E Q  E E
|------------------|------------------|
|------------------|------------------|
|------------------|------------------|
|------------------|------------------|
|-------5-7-5--7---|-------5-7-5--7---|
|-(7)-7----------6-|-(6)-6----------5-|


  +E  E E E Q  E E   +E  E E E E    +E  +E  E
|------------------|---------------------------|
|------------------|---------------------------|
|------------------|---------------------------|
|------------------|---------------------------|
|-------5-7-5--7---|-------5-7-7b9==(7)r(7)----|
|-(5)-5----------4-|-(4)-4------------------7--|


  +E  E E E Q  E E   +E  E E E Q  E E   +E  E E E Q  E E   +E  E E E Q  Q
|------------------|------------------|------------------|------------------||
|------------------|------------------|------------------|------------------||
|------------------|------------------|------------------|------------------||
|------------------|------------------|------------------|------------------||
|-------5-7-5--7---|-------5-7-5--7---|-------5-7-5--7---|-------2-4-2------||
|-(7)-7----------6-|-(6)-6----------5-|-(5)-5----------4-|-(4)-4--------4---||


 Outro
  G5                                              B5BbB5
  W          +W           +W           +H     +E  E E E
|----------|------------|------------|-------------------|
|----------|------------|------------|-------------------|
|----------|------------|------------|-------------------|
|-5--------|-(5)--------|-(5)--------|-(5)----(5)--------|
|-5--------|-(5)--------|-(5)--------|-(5)----(5)-9-8-9--|
|-3--------|-(3)--------|-(3)--------|-(3)----(3)-7-6-7--|


      BbB5    BbB5      BbB5    BbB5
  E E E E E E E E   E E E E E E E E
|-----------------|-----------------|
|-----------------|-----------------|
|-----------------|-----------------|
|-----------------|-----------------|
|---9-8-9---9-8-9-|---9-8-9---9-8-9-|
|---7-6-7---7-6-7-|---7-6-7---7-6-7-|


      BbB5    BbB5  N.C.
  E E E E E E E E   S S S S S S S S S S S S S S E
|-----------------|--------------------------------*|
|-----------------|--------------------------------*|
|-----------------|--------------------------------*|
|-----------------|--------------------------------*|
|---9-8-9---9-8-9-|-x-x-x-x-x-x-x-x-x-x-x-x-x-x----*|
|---7-6-7---7-6-7-|--------------------------------*|



Duration Legend
---------------
W - whole; H - half; Q - quarter; E - 8th; S - 16th; T - 32nd; X - 64th; a - acciaccatura
+ - note tied to previous; . - note dotted; .. - note double dotted
Uncapitalized letters represent notes that are staccato (1/2 duration)
Irregular groupings are notated above the duration line
Duration letters will always appear directly above the note/fret number it represents the
duration for.  Duration letters with no fret number below them represent rests.  Multi-
bar rests are notated in the form Wxn, where n is the number of bars to rest for.  Low
melody durations appear below the staff

Tablature Legend
----------------
 h   - hammer-on
 p   - pull-off
 b   - bend
 pb  - pre-bend
 r   - bend release (if no number after the r, then release immediately)
 /\  - slide into or out of (from/to "nowhere")
 s   - legato slide
 S   - shift slide
<n> - natural harmonic
[n]  - artificial harmonic
n(n) - tapped harmonic
 ~   - vibrato
 tr  - trill
 T   - tap
 TP  - trem. picking
 PM  - palm muting
\n/  - tremolo bar dip; n = amount to dip
 \n  - tremolo bar down
 n/  - tremolo bar up
/n\  - tremolo bar inverted dip
 =   - hold bend; also acts as connecting device for hammers/pulls
 <> - volume swell (louder/softer)
 x   - on rhythm slash represents muted slash
 o   - on rhythm slash represents single note slash

Misc Legend
-----------
 |  - bar
||  - double bar
||o - repeat start
o|| - repeat end
*|  - double bar (ending)
 :  - bar (freetime)
 $  - Segno
 &  - Coda
Tempo markers - <E/E./Q/Q./H/H.> = BPM(8/16=s8/s16), where s8 = swing 8ths, s16 = swing 16ths

comments
We did not receive enough feedback on this tab! Please rate:
print report bad tab
1 2 3 4 5
I want to post or [tab]
guest
You may want to rate the tab now too:
select rating
Please do not post tabs as comments. Select "correction" instead!