Oops, an error
Loading. Please wait.

Raise Hell Tab

454 views 1 this week
no commentswrite comment
1 2 3 4 5
excellent!
x 1
add to favorites
launch autoscroll
font size
0
reset
Tab Pro tools
  • play this tab
  • loop segment
  • change instrument
  • show fretboard
  • metronome
Autoscroll
+/-
esc
set tempo
stop
Contributor
WARNING: You are trying to view
                                    content from Ultimate-Guitar.com
                                    in an unauthorized application,
                                    which is prohibited.

                                    Please use an official Ultimate
                                    Guitar Tabs application for iPhone,
                                    iPad or Android to access legitimate
                                    chords, guitar, bass, and drum tabs
                                    from Ultimate-Guitar.com database.

                                    Type "ultimate guitar tabs" in Apple
                                    App Store's or Android Market's
                                    search to find the application.
Anthrax – Raise Hell

A great song by Anthrax! Here it is in it’s entirety! RAISE HELL! Contact me at:
rattlehead.coolio@hotmail.com

Tablature Legend:
~     - vibrato
/     - slide up
\     - slide down
PM|-| - Palm Mute
?(?)  - Bend(to whatever is in the brackets)
h     - hammer-on
p     - pull-off
H     - Harmonic
t~    - tremolo
d~    - divebomb

Intro:
  Gtr II
e|---------------------------------|
B|---------------------------------|
G|---------------------------------|
D|-----9-----9-----10\9-7/9---7/9--|
A|-----7-----7-----8-\7-5/7---5/7--|
E|-0-0---0-0---0-0----------0------|
PM|---| |---| |---|        |-|

  Gtr I                         (x3)
e|---------------------------------|
B|---------------------------------|
G|---------------------------------|
D|-----9---------------------------|
A|-----7---------------------------|
E|-----0---------------------------|
 |
 |Gtr II                        (x3)
e|---------------------------------|
B|---------------------------------|
G|---------------------------------|
D|-----9-----9-----10\9-7/9---7/9--|
A|-----7-----7-----8-\7-5/7---5/7--|
E|-0-0---0-0---0-0----------0------|
PM|---| |---| |---|        |-|

  Gtr I & II
e|---------------------------------|
B|---------------------------------|
G|---------------------------------|
D|-----9-----9-----10\9-7/9---7/9--|
A|-----7-----7-----8-\7-5/7---5/7--|
E|-0-0---0-0---0-0----------0------|
PM|---| |---| |---|        |-|

e|-----------------------------|
B|-----------------------------|
G|-----------------------------|
D|-----9---9---10\9-7/9---7/9--|
A|-----7---7---8-\7-5/7---5/7--|
E|-0-0------------------0------|
PM|---|                |-|

e|---------------------------------|
B|---------------------------------|
G|---------------------------------|
D|-----9-----9-----10\9-7/9---7/9--|
A|-----7-----7-----8-\7-5/7---5/7--|
E|-0-0---0-0---0-0----------0------|
PM|---| |---| |---|        |-|

e|-----------------------------|
B|-----------------------------|
G|-----------------------------|
D|-----9---9---10\9-7/9---7/9--|
A|-----7---7---8-\7-5/7---5/7--|
E|-0-0------------------0------|
PM|---|                |-|

Verse I:

  Gtr I & II                       (x4)
e|------------------------------------|
B|------------------------------------|
G|------------------------------------|
D|-5--4---5--4---5--4-----------------|
A|-3--2---3--2---3--2----------5--4---|
E|---------------------0-2-3-5-3--2---|
PM                    |-------|

Chorus I:

  Gtr I & II                                (x2)
e|---------------------------------------------|
B|---------------------------------------------|
G|---------9-8--------9-8-------9-8------------|
D|-9-------7-6--------7-6-------7-6------------|
A|-7----------------------------------5-3------|
E|---0-0-0------0-0-0-----0-0-0-----0-----5-3--|
PM  |-----|    |-----|   |-----|   |-|

                                                              (x2)
e|---------------------------------|-----------------------------|
B|---------------------------------|-----------------------------|
G|---------------------------------|-----------------------------|
D|-----9-----9-----10\9-7/9---7/9--|-----9---9---10\9-7/9---12---|
A|-----7-----7-----8-\7-5/7---5/7--|-----7---7---8-\7-5/7---10---|
E|-0-0---0-0---0-0----------0------|-0-0------------------0------|
PM|---| |---| |---|        |-|      |---|                |-|

  Gtr I
e|---------------------------------|------------------------------|
B|---------------------------------|------------------------------|
G|---------------------------------|------------------------------|
D|-----9-----9-----10\9-7/9---7/9--|-----9---9---10\9-7/9---------|
A|-----7-----7-----8-\7-5/7---5/7--|-----7---7---8-\7-5/7---------|
E|-0-0---0-0---0-0----------0------|-0-0------------------0--12\--|
 |PM--| |---| |---|        |-|      |---|                |-|
 |Gtr II
e|---------------------------------|-----------------------------|
B|---------------------------------|-----------------------------|
G|---------------------------------|-----------------------------|
D|-----9-----9-----10\9-7/9---7/9--|-----9---9---10\9-7/9---12---|
A|-----7-----7-----8-\7-5/7---5/7--|-----7---7---8-\7-5/7---10---|
E|-0-0---0-0---0-0----------0------|-0-0------------------0------|
PM|---| |---| |---|        |-|      |---|                |-|

  Gtr I & II
e|---------------------------------|-----------------------------|
B|---------------------------------|-----------------------------|
G|---------------------------------|-----------------------------|
D|-----9-----9-----10\9-7/9---7/9--|-----9---9---10\9-7/9---7/9--|
A|-----7-----7-----8-\7-5/7---5/7--|-----7---7---8-\7-5/7---5/7--|
E|-0-0---0-0---0-0----------0------|-0-0------------------0------|
PM|---| |---| |---|        |-|      |---|                |-|

Verse II: same as Verse I

Chorus II:

  Gtr I & II                                (x2)
e|---------------------------------------------|
B|---------------------------------------------|
G|---------9-8--------9-8-------9-8------------|
D|-9-------7-6--------7-6-------7-6------------|
A|-7----------------------------------5-3------|
E|---0-0-0------0-0-0-----0-0-0-----0-----5-3--|
PM  |-----|    |-----|   |-----|   |-|

  Gtr I
e|---------------------------------|------------------------------|
B|---------------------------------|------------------------------|
G|---------------------------------|------------------------------|
D|-----9-----9-----10\9-7/9---7/9--|-----9---9---10\9-7/9---------|
A|-----7-----7-----8-\7-5/7---5/7--|-----7---7---8-\7-5/7---------|
E|-0-0---0-0---0-0----------0------|-0-0------------------0--12\--|
 |PM--| |---| |---|        |-|      |---|                |-|
 |Gtr II
e|---------------------------------|-----------------------------|
B|---------------------------------|-----------------------------|
G|---------------------------------|-----------------------------|
D|-----9-----9-----10\9-7/9---7/9--|-----9---9---10\9-7/9---12---|
A|-----7-----7-----8-\7-5/7---5/7--|-----7---7---8-\7-5/7---10---|
E|-0-0---0-0---0-0----------0------|-0-0------------------0------|
PM|---| |---| |---|        |-|      |---|                |-|

  Gtr I & II
e|---------------------------------|-----------------------------|
B|---------------------------------|-----------------------------|
G|---------------------------------|-----------------------------|
D|-----9-----9-----10\9-7/9---7/9--|-----9---9---10\9-7/9---12---|
A|-----7-----7-----8-\7-5/7---5/7--|-----7---7---8-\7-5/7---10---|
E|-0-0---0-0---0-0----------0------|-0-0------------------0------|
PM|---| |---| |---|        |-|      |---|                |-|

  Gtr I
e|---------------------------------|------------------------------|
B|---------------------------------|------------------------------|
G|---------------------------------|------------------------------|
D|-----9-----9-----10\9-7/9---7/9--|-----9---9---10\9-7/9---------|
A|-----7-----7-----8-\7-5/7---5/7--|-----7---7---8-\7-5/7---------|
E|-0-0---0-0---0-0----------0------|-0-0------------------0--12\--|
 |PM--| |---| |---|        |-|      |---|                |-|
 |Gtr II
e|---------------------------------|-----------------------------|
B|---------------------------------|-----------------------------|
G|---------------------------------|-----------------------------|
D|-----9-----9-----10\9-7/9---7/9--|-----9---9---10\9-7/9---12---|
A|-----7-----7-----8-\7-5/7---5/7--|-----7---7---8-\7-5/7---10---|
E|-0-0---0-0---0-0----------0------|-0-0------------------0------|
PM|---| |---| |---|        |-|      |---|                |-|

  Gtr I & II
e|---------------------------------|-----------------------------|
B|---------------------------------|-----------------------------|
G|---------------------------------|-----------------------------|
D|-----9-----9-----10\9-7/9---7/9--|-----9---9---10\9-7/9---7/9--|
A|-----7-----7-----8-\7-5/7---5/7--|-----7---7---8-\7-5/7---5/7--|
E|-0-0---0-0---0-0----------0------|-0-0------------------0------|
PM|---| |---| |---|        |-|      |---|                |-|

Bridge:

  Gtr I
e|-------------0-2-3~------2-3-5~------3-5-7~------5-7-8~-------7-8-10~-----------8-10-|
B|-------------------------------------------------------------------------------------|
G|-------------------------------------------------------------------------------------|
D|-2~----------------------------------------------------------------------------------|
A|-------------------------------------------------------------------------------------|
E|-------------------------------------------------------------------------------------|
 |
 |Gtr II
e|--------------------------------------------------------------------------------|
B|--------------------------------------------------------------------------------|
G|--------------------------------------------------------------------------------|
D|--------------------------------------------------------------------------------|
A|-2-----------5-----------7-----------9-----------10-----------12----------------|
E|-0-0-0-0-0-0-3-3-3-3-3-3-5-5-5-5-5-5-7-7-7-7-7-7-8--8-8-8-8-8-10-10-10-10-10-10-|
PM  |---------| |---------| |---------| |---------|  |---------|  |--------------|

  Gtr I                                                  H    (x2)
e|---------------------------------|-----------------------------|
B|---------------------------------|-----------------------------|
G|---------------------------------|-----------------------------|
D|---7-6~--6h7-9-7-6---------------|--7-6~-6h7-9-7-6-------------|
A|-------------------8--7h8p7~-----|-----------------8-7(8)(7)~--|
E|---------------------------------|-----------------------------|
 |
 |Gtr II                                                      (x2)
e|---------------------------------|-----------------------------|
B|---------------------------------|-----------------------------|
G|---------------------------------|-----------------------------|
D|-----9-----9-----10\9-7/9---7/9--|-----9---9---10\9-7/9---12---|
A|-----7-----7-----8-\7-5/7---5/7--|-----7---7---8-\7-5/7---10---|
E|-0-0---0-0---0-0----------0------|-0-0------------------0------|
PM|---| |---| |---|        |-|      |---|                |-|

  Gtr I                                                           (x2)
e|---------------------------------|---------------------------------|
B|--10-9~-9h10-12-10-9-------------|-10-9~-9h10-12-10-9--------------|
G|---------------------10-9h10p9~--|--------------------10-9(10)(9)~-|
D|---------------------------------|---------------------------------|
A|---------------------------------|---------------------------------|
E|---------------------------------|---------------------------------|
 |
 |Gtr II                                                          (x2)
e|---------------------------------|---------------------------------|
B|---------------------------------|---------------------------------|
G|---------------------------------|---------------------------------|
D|-----9-----9-----10\9-7/9---7/9--|-9-9------9-9------9-9—-----9-9--|
A|-----7-----7-----8-\7-5/7---5/7--|-7-7------7-7------7-7------7-7--|
E|-0-0---0-0---0-0----------0------|-0-0------0-0------0-0------0-0--|
PM|---| |---| |---|        |-|   

Solo:

Gtr I
e|----12-15p14p12-17(19)~-----12-15p14p12---------------|
B|-12----------------------12-------------15p14p12------|
G|-------------------------------------------------14~--|
D|------------------------------------------------------|
A|------------------------------------------------------|
E|------------------------------------------------------|

e|----------------------------------------------------------|
B|-12-17p15p12----------17p15p12----------17(19)-17(19)~-\--|
G|-------------15p14p12----------15p14p12-------------------|
D|----------------------------------------------------------|
A|----------------------------------------------------------|
E|----------------------------------------------------------|

e|--------------------------------------------------------------------------------------|
B|-------------------------------------14p12p10----------------17(19)-17p15-17(19)------|
G|----------------------------14p12p10----------14p12p10-12t~\---------------------14t~-|
D|----------14p12p10--------------------------------------------------------------------|
A|-14p12p10----------14p12p10-----------------------------------------------------------|
E|--------------------------------------------------------------------------------------|

e|-19p17p14-----------------------------------------------------------------------------|
B|----------19p17p14--------------------------------------------------------------------|
G|-------------------16p15p14-----------------------------------------------------------|
D|----------------------------16p15p14--------------------------------------------------|
A|-------------------------------------16p15p14-14p13p12-12p10p9-10p8p7-8p7p5-7p5p3-2~--|
E|--------------------------------------------------------------------------------------|

e|---------------17-22p19p17-22p19p17-22p19p17-22p19p17-|
B|-17(19)-17(19)----------------------------------------|
G|------------------------------------------------------|
D|------------------------------------------------------|
A|------------------------------------------------------|
E|------------------------------------------------------|

e|-20p19p17-19p17p15-17p15p14-15p14p12-14p12p10----14~-14~-t~~~~~~---|
B|----------------------------------------------14-------------------|
G|-------------------------------------------------------------------|
D|-------------------------------------------------------------------|
A|-------------------------------------------------------------------|
E|-------------------------------------------------------------------|

Solo Rhythm:

Gtr II                                         (x4)
e|------------------------------------------------|
B|------------------------------------------------|
G|------------------------------------------------|
D|-------------7-----------7-----------9-9--7--6--|
A|-9-----------5-----------5-----------7-7--5--4--|
E|-7-7-7-7-5-7---7-7-7-5-7---7-7-7-5-7------------|

Chorus III: 

  Gtr I & II                                (x2)
e|---------------------------------------------|
B|---------------------------------------------|
G|---------9-8--------9-8-------9-8------------|
D|-9-------7-6--------7-6-------7-6------------|
A|-7----------------------------------5-3------|
E|---0-0-0------0-0-0-----0-0-0-----0-----5-3--|
PM  |-----|    |-----|   |-----|   |-|

  Gtr I
e|---------------------------------|----------------------------------------------|
B|---------------------------------|--------------------------15(17)~~------------|
G|---------------------------------|----------------------------------------------|
D|-----9-----9-----10\9-7/9---7/9--|-----9---9---10\9-7/9--------------12-d~~~~---|
A|-----7-----7-----8-\7-5/7---5/7--|-----7---7---8-\7-5/7-------------------------|
E|-0-0---0-0---0-0----------0------|-0-0------------------0-----------------------|
 |PM--| |---| |---|        |-|      |---|                |-|
 |Gtr II
e|---------------------------------|-----------------------------|
B|---------------------------------|-----------------------------|
G|---------------------------------|-----------------------------|
D|-----9-----9-----10\9-7/9---7/9--|-----9---9---10\9-7/9---12---|
A|-----7-----7-----8-\7-5/7---5/7--|-----7---7---8-\7-5/7---10---|
E|-0-0---0-0---0-0----------0------|-0-0------------------0------|
PM|---| |---| |---|        |-|      |---|                |-|

  Gtr I & II
e|---------------------------------|-----------------------------|
B|---------------------------------|-----------------------------|
G|---------------------------------|-----------------------------|
D|-----9-----9-----10\9-7/9---7/9--|-----9---9---10\9-7/9---12---|
A|-----7-----7-----8-\7-5/7---5/7--|-----7---7---8-\7-5/7---10---|
E|-0-0---0-0---0-0----------0------|-0-0------------------0------|
PM|---| |---| |---|        |-|      |---|                |-|

  Gtr I
e|---------------------------------|------------------------------------------------|
B|---------------------------------|-------------------------15-t~-t~-t~-t~---------|
G|---------------------------------|----------------------------------------12-d~~--|
D|-----9-----9-----10\9-7/9---7/9--|-----9---9---10\9-7/9---------------------------|
A|-----7-----7-----8-\7-5/7---5/7--|-----7---7---8-\7-5/7---------------------------|
E|-0-0---0-0---0-0----------0------|-0-0------------------0-------------------------|
 |PM--| |---| |---|        |-|      |---|                |-|
 |Gtr II
e|---------------------------------|-----------------------------|
B|---------------------------------|-----------------------------|
G|---------------------------------|-----------------------------|
D|-----9-----9-----10\9-7/9---7/9--|-----9---9---10\9-7/9---12---|
A|-----7-----7-----8-\7-5/7---5/7--|-----7---7---8-\7-5/7---10---|
E|-0-0---0-0---0-0----------0------|-0-0------------------0------|
PM|---| |---| |---|        |-|      |---|                |-|

  Gtr II
e|---------------------------------|-----------------------------|
B|---------------------------------|-----------------------------|
G|---------------------------------|-----------------------------|
D|-----9-----9-----10\9-7/9---7/9--|-----9---9---10\9-7/9---12---|
A|-----7-----7-----8-\7-5/7---5/7--|-----7---7---8-\7-5/7---10---|
E|-0-0---0-0---0-0----------0------|-0-0------------------0------|
PM|---| |---| |---|        |-|      |---|                |-|

End Solo:

Gtr I
e|-------------------------------------------------------15-14-12-15-14-12--------------------|
B|-------------------------------------15-14-12-15-14-12-------------------16(18)-17(20)---\--|
G|-------------------15-14-12-15-14-12--------------------------------------------------------|
D|-15-14-12-15-14-12--------------------------------------------------------------------------|
A|--------------------------------------------------------------------------------------------|
E|--------------------------------------------------------------------------------------------|

Outro:

Gtr II
e|-----------------|
B|-----------------|
G|-----------------|
D|-9-9--9-9-9-9\---|
A|-7-7--7-7-7-7\---|
E|-----------------|

Enjoy!
comments
We did not receive enough feedback on this tab! Please rate:
print report bad tab
1 2 3 4 5
I want to post or [tab]
guest
You may want to rate the tab now too:
select rating
Please do not post tabs as comments. Select "correction" instead!