Oops, an error
Loading. Please wait.

Room For One More Tab

ver1
ver1

Solo

Whole song

Interactive

More versions @911Tabs.com
2,560 views 18 this week
no commentswrite comment
1 2 3 4 5
excellent!
x 2
Autoscroll
+/-
esc
set tempo
stop
Contributor
Tuning
D A D G B E
Hey! There's an official Ultimate Guitar app which is ideal
for learning songs when you're away from computer. Get the app
WARNING: You are trying to view
                                    content from Ultimate-Guitar.com
                                    in an unauthorized application,
                                    which is prohibited.

                                    Please use an official Ultimate
                                    Guitar Tabs application for iPhone,
                                    iPad or Android to access legitimate
                                    chords, guitar, bass, and drum tabs
                                    from Ultimate-Guitar.com database.

                                    Type "ultimate guitar tabs" in Apple
                                    App Store's or Android Market's
                                    search to find the application.
#----------------------------------PLEASE NOTE---------------------------------#
#This file is the author's own work and represents their interpretation of the #
#song. You may only use this file for private study, scholarship, or research. #
#------------------------------------------------------------------------------#

ROOM FOR ONE MORE
As recorded by Anthrax
(From the 1993 Album SOUND OF WHITE NOISE)

Transcribed by Mike Sheehan
	

Words and Music by Charlie Benante, Scott Ian & John Bush

D5
0 0 x x x x
	
F5
3 3 x x x x
	
G5
5 5 x x x x
	
G#5
6 6 x x x x

Bb5
8 8 x x x x

Gtr I (D A D G B E) - 'Scott Ian'
Gtr II (D A D G B E) - 'Dan Spitz'
Gtr III (D A D G B E) - 'Overdubs'

   Intro
    Q=130
    D5   G#5      D5   G#5      D5   G#5      D5   G#5
   4/4
    Gtrs I, II
    H    E E Q    H    E E Q    H    E E Q    H    E E Q
||--------------|-------------|-------------|---------------||
||o-------------|-------------|-------------|--------------o||
||--------------|-------------|-------------|---------------||
||--------------|-------------|-------------|---------------||
||o-0----6------|-0----6------|-0----6------|-0----6-------o||
||--0----6------|-0----6------|-0----6------|-0----6--------||


  D5   G#5       D5   G#5       D5   G#5       D5   G#5
         PM--|          PM--|          PM--|          PM--|
  H    E E E E   H    E E E E   H    E E E E   H    E E E E
|--------------|--------------|--------------|---------------|
|--------------|--------------|--------------|---------------|
|--------------|--------------|--------------|---------------|
|--------------|--------------|--------------|---------------|
|-0----6-------|-0----6-------|-0----6-------|-0----6--------|
|-0----6-6-6-6-|-0----6-6-6-6-|-0----6-6-6-6-|-0----6-6-6-6--|


    N.C.                  F5  N.C.                  F5
    PM------------------|     PM------------------|
    S S S S S S S S E E E E   S S S S S S S S E E E E
||--------------------------|-------------------------|
||o-------------------------|-------------------------|
||--------------------------|-------------------------|
||--------------------------|-------------------------|
||o-----------------------3-|-----------------------3-|
||--0-3-5-0-3-5-0-5-0-3-0-3-|-0-3-5-0-3-5-0-5-0-3-0-3-|


  N.C.                  F5
  PM------------------|
  S S S S S S S S E E E E
|---------------------------||
|--------------------------o||
|---------------------------||
|---------------------------||
|-----------------------3--o||
|-0-3-5-0-3-5-0-5-0-3-0-3---||


  N.C.                  F5  N.C.
  PM------------------|     PM------------------|
  S S S S S S S S E E E E   S S S S S S S S E E E E
|-------------------------|-------------------------|
|-------------------------|-------------------------|
|-------------------------|-----------------------5-|
|-------------------------|-----------------------0-|
|-----------------------3-|-------------------------|
|-0-3-5-0-3-5-0-5-0-3-0-3-|-0-3-5-0-3-5-0-5-0-3-0---|


          PM----|             PM----|
  +E  E E E E E E E   +E  E E E E E E E
|-------------------|-------------------|
|-------------------|-------------------|
|-(5)-6-7---------5-|-(5)-6-7---------5-|
|-(0)-0-0---------0-|-(0)-0-0---------0-|
|-------------------|-------------------|
|---------0-0-0-0---|---------0-0-0-0---|


                                      F5
          PM----|             PM----|
  +E  E E E E E E E   +E  E E E E E E E
|-------------------|--------------------||
|-------------------|--------------------||
|-(5)-6-7---------5-|-(5)-6-7------------||
|-(0)-0-0---------0-|-(0)-0-0------------||
|-------------------|-----------------3--||
|---------0-0-0-0---|---------0-0-0-0-3--||


 Verse
  $
  N.C.
  PM------------------------------------------------------------------------|
  S S S S S S S S E E E E   S S S S S S S S E E E E   S S S S S S S S E E E E
|-------------------------|-------------------------|-------------------------|
|-------------------------|-------------------------|-------------------------|
|-------------------------|-------------------------|-------------------------|
|-------------------------|-------------------------|-------------------------|
|-------------------------|-------------------------|-------------------------|
|-0-3-5-0-3-5-0-5-0-0-0-0-|-0-3-5-0-3-5-0-5-0-0-0-0-|-0-3-5-0-3-5-0-5-0-0-0-0-|


                                                  F5  N.C.                  F5
  PM--------------------------------------------|     PM------------------|
  S S S S S S S S E E E E   S S S S S S S S E E E E   S S S S S S S S E E E E
|-------------------------|-------------------------|-------------------------|
|-------------------------|-------------------------|-------------------------|
|-------------------------|-------------------------|-------------------------|
|-------------------------|-------------------------|-------------------------|
|-------------------------|-----------------------3-|-----------------------3-|
|-0-3-5-0-3-5-0-5-0-0-0-0-|-0-3-5-0-3-5-0-5-0-3-0-3-|-0-3-5-0-3-5-0-5-0-3-0-3-|


  N.C.                  F5  N.C.
  PM------------------|     PM------------------|
  S S S S S S S S E E E E   S S S S S S S S E E E E
|-------------------------|-------------------------||
|-------------------------|-------------------------||
|-------------------------|-----------------------5-||
|-------------------------|-----------------------0-||
|-----------------------3-|-------------------------||
|-0-3-5-0-3-5-0-5-0-3-0-3-|-0-3-5-0-3-5-0-5-0-3-0---||


 Pre Chorus
                  Bb5     F5          N.C.
          PM----|
  +E  E E E E E E E   +E   Q  E E E E E
|-------------------|-------------------|
|-------------------|-------------------|
|-(5)-6-7-----------|-----------------5-|
|-(0)-0-0-----------|-----------------0-|
|-----------------8-|-(8)-\3------------|
|---------0-0-0-0-8-|-(8)-\3--0-0-0-0---|


                  Bb5     F5          N.C.
  +E  E E E E E E E   +E   Q  E E E E E
|-------------------|--------------------|
|-------------------|--------------------|
|-(5)-6-7-----------|-----------------5--|
|-(0)-0-0-----------|-----------------0--|
|-----------------8-|-(8)-\3-------------|
|---------0-0-0-0-8-|-(8)-\3--0-0-0-0----|


                  Bb5     F5          N.C.
          PM----|             PM----|
  +E  E E E E E E E   +E   Q  E E E E E
|-------------------|-------------------|
|-------------------|-------------------|
|-(5)-6-7-----------|-----------------5-|
|-(0)-0-0-----------|-----------------0-|
|-----------------8-|-(8)-\3------------|
|---------0-0-0-0-8-|-(8)-\3--0-0-0-0---|


                  F5      Bb5         F5
          PM----|             PM----|
  +E  E E E E E E E   +E   Q  E E E E E
|-------------------|--------------------|
|-------------------|--------------------|
|-(5)-6-7-----------|--------------------|
|-(0)-0-0-----------|--------------------|
|-----------------3-|-(3)-/8----------3--|
|---------0-0-0-0-3-|-(3)-/8--0-0-0-0-3--|


  N.C.                  F5  N.C.                  F5
  PM------------------|     PM------------------|
  S S S S S S S S E E E E   S S S S S S S S E E E E
|-------------------------|-------------------------|
|-------------------------|-------------------------|
|-------------------------|-------------------------|
|-------------------------|-------------------------|
|-----------------------3-|-----------------------3-|
|-0-3-5-0-3-5-0-5-0-3-0-3-|-0-3-5-0-3-5-0-5-0-3-0-3-|


  D5
    PM----------------------------|
  E E E E E E E E   E E E E E E E E
|-----------------|-----------------||
|-----------------|-----------------||
|-----------------|-----------------||
|-----------------|-----------------||
|-0---------------|-----------------||
|-0-0-0-0-0-0-0-0-|-8-8-0-0-8-8-0-0-||


 Chorus
  D5     G#5G5     G#5  F5     G5 G#G5 F5G5
  Gtrs I, II
  Q.      E Q.      E   Q.      E E  E E  E
|---------------------|---------------------|
|---------------------|---------------------|
|---------------------|---------------------|
|---------------------|---------------------|
|-0------/6-5------/6-|-3------/5-6-\5-3-/5-|
|-0------/6-5------/6-|-3------/5-6-\5-3-/5-|
|
| Gtr III
| E  E E  E E  E E  E   E  E E  E E  E E  E
|---------------------|---------------------|
|---------------------|---------------------|
|-7--7-7--7-7--7-7--7-|-7--7-7--7-7--7-7--7-|
|---------------------|---------------------|
|---------------------|---------------------|
|---------------------|---------------------|


  D5     G#5G5     G#5  F5
                          PM----------|
  Q.      E Q.      E   E E E E E E E E
|---------------------|------------------|
|---------------------|------------------|
|---------------------|------------------|
|---------------------|------------------|
|-0------/6-5------/6-|-3----------------|
|-0------/6-5------/6-|-3-3-3-3-3-3-3-3--|
|
| E  E E  E E  E E  E   E E E E E E E E
|---------------------|------------------|
|---------------------|------------------|
|-7--7-7--7-7--7-7--7-|-7-7-7-7-7-7-7-7--|
|---------------------|------------------|
|---------------------|------------------|
|---------------------|------------------|


  D5     G#5G5     G#5  F5     G5 G#G5 F5G5
  Q.      E Q.      E   Q.      E E  E E  E
|---------------------|---------------------|
|---------------------|---------------------|
|---------------------|---------------------|
|---------------------|---------------------|
|-0------/6-5------/6-|-3------/5-6-\5-3-/5-|
|-0------/6-5------/6-|-3------/5-6-\5-3-/5-|
|
| E  E E  E E  E E  E   E  E E  E E  E E  E
|---------------------|---------------------|
|---------------------|---------------------|
|-7--7-7--7-7--7-7--7-|-7--7-7--7-7--7-7--7-|
|---------------------|---------------------|
|---------------------|---------------------|
|---------------------|---------------------|


                               To Coda
  D5     G#5G5     G#5  F5
                          PM----------|
  Q.      E Q.      E   E E E E E E E E
|---------------------|------------------|
|---------------------|------------------|
|---------------------|------------------|
|---------------------|------------------|
|-0------/6-5------/6-|-3----------------|
|-0------/6-5------/6-|-3-3-3-3-3-3-3-3--|
|
| E  E E  E E  E E  E   E E E E E E E E
|---------------------|------------------|
|---------------------|------------------|
|-7--7-7--7-7--7-7--7-|-7-7-7-7-7-7-7-7--|
|---------------------|------------------|
|---------------------|------------------|
|---------------------|------------------|


                    N.C.
  PM----------|     PM----------------------------------------------|
  E E E E E E E E   S S S S S S S S E E E E   S S S S S S S S E E E E
|-----------------|-------------------------|-------------------------|
|-----------------|-------------------------|-------------------------|
|-----------------|-------------------------|-------------------------|
|-----------------|-------------------------|-------------------------|
|---------------3-|-------------------------|-------------------------|
|-3-3-3-3-3-3-3-3-|-0-3-5-0-3-5-0-5-0-0-0-0-|-0-3-5-0-3-5-0-5-0-0-0-0-|
|
| E E E E E E E E   W                         W
|-----------------|-------------------------|-------------------------|
|-----------------|-------------------------|-------------------------|
|-7-7-7-7-7-7-7-7-|-------------------------|-------------------------|
|-----------------|-------------------------|-------------------------|
|-----------------|-------------------------|-------------------------|
|-----------------|-------------------------|-------------------------|


                                      D.S. al Coda
  PM----------------------------------------------|
  S S S S S S S S E E E E   S S S S S S S S E E E E
|-------------------------|-------------------------||
|-------------------------|-------------------------||
|-------------------------|-------------------------||
|-------------------------|-------------------------||
|-------------------------|-------------------------||
|-0-3-5-0-3-5-0-5-0-0-0-0-|-0-3-5-0-3-5-0-5-0-0-0-0-||


    &
    D5     G#5G5     G#5  F5     G5 G#G5 F5G5
    Gtrs I, II
    Q.      E Q.      E   Q.      E E  E E  E
||----------------------|---------------------|
||o---------------------|---------------------|
||----------------------|---------------------|
||----------------------|---------------------|
||o-0------/6-5------/6-|-3------/5-6-\5-3-/5-|
||--0------/6-5------/6-|-3------/5-6-\5-3-/5-|
|
|   Gtr III
|   E  E E  E E  E E  E   E  E E  E E  E E  E
||----------------------|---------------------|
||o---------------------|---------------------|
||--7--7-7--7-7--7-7--7-|-7--7-7--7-7--7-7--7-|
||----------------------|---------------------|
||o---------------------|---------------------|
||----------------------|---------------------|


  D5     G#5G5     G#5  F5
                          PM----------|
  Q.      E Q.      E   E E E E E E E E
|---------------------|------------------||
|---------------------|-----------------o||
|---------------------|------------------||
|---------------------|------------------||
|-0------/6-5------/6-|-3---------------o||
|-0------/6-5------/6-|-3-3-3-3-3-3-3-3--||
|
| E  E E  E E  E E  E   E E E E E E E E
|---------------------|------------------||
|---------------------|-----------------o||
|-7--7-7--7-7--7-7--7-|-7-7-7-7-7-7-7-7--||
|---------------------|------------------||
|---------------------|-----------------o||
|---------------------|------------------||


                    N.C.                                            F5
  PM----------|     PM------------------|     PM------------------|
  E E E E E E E E   S S S S S S S S E E E E   S S S S S S S S E E E E
|-----------------|-------------------------|-------------------------|
|-----------------|-------------------------|-------------------------|
|-----------------|-------------------------|-------------------------|
|-----------------|-------------------------|-------------------------|
|---------------3-|-----------------------3-|-----------------------3-|
|-3-3-3-3-3-3-3-3-|-0-3-5-0-3-5-0-5-0-3-0-3-|-0-3-5-0-3-5-0-5-0-3-0-3-|
|
| E E E E E E E E   W                         W
|-----------------|-------------------------|-------------------------|
|-----------------|-------------------------|-------------------------|
|-7-7-7-7-7-7-7-7-|-------------------------|-------------------------|
|-----------------|-------------------------|-------------------------|
|-----------------|-------------------------|-------------------------|
|-----------------|-------------------------|-------------------------|


  N.C.                  F5  N.C.                  F5
  PM------------------|     PM------------------|
  S S S S S S S S E E E E   S S S S S S S S E E E E
|-------------------------|-------------------------||
|-------------------------|-------------------------||
|-------------------------|-------------------------||
|-------------------------|-------------------------||
|-----------------------3-|-----------------------3-||
|-0-3-5-0-3-5-0-5-0-3-0-3-|-0-3-5-0-3-5-0-5-0-3-0-3-||


 Interlude
  D5   G#5      D5   G#5      D5   G#5      D5   G#5
  H    E E Q    H    E E Q    H    E E Q    H    E E Q
|-------------|-------------|-------------|--------------|
|-------------|-------------|-------------|--------------|
|-------------|-------------|-------------|--------------|
|-------------|-------------|-------------|--------------|
|-0----6------|-0----6------|-0----6------|-0----6-------|
|-0----6------|-0----6------|-0----6------|-0----6-------|


  D5   G#5       D5   G#5       D5   G#5       D5   G#5   N.C.
         PM--|          PM--|          PM--|          PM|
  H    E E E E   H    E E E E   H    E E E E   H    E E E E
|--------------|--------------|--------------|---------------|
|--------------|--------------|--------------|---------------|
|--------------|--------------|--------------|------------5--|
|--------------|--------------|--------------|------------0--|
|-0----6-------|-0----6-------|-0----6-------|-0----6--------|
|-0----6-6-6-6-|-0----6-6-6-6-|-0----6-6-6-6-|-0----6-6-6----|


   Bridge
    +E  E E H    E   +E  E E H    E   +E  E E H    E   +E  E E H    E
||-----------------|----------------|----------------|-----------------||
||o----------------|----------------|----------------|----------------o||
||--(5)-6-7------5-|-(5)-6-7------5-|-(5)-6-7------5-|-(5)-6-7------5--||
||--(0)-0-0------0-|-(0)-0-0------0-|-(0)-0-0------0-|-(0)-0-0------0--||
||o----------------|----------------|----------------|----------------o||
||-----------------|----------------|----------------|-----------------||


  +E  E E H    E   +E  E E E E E E E   +E  E E E E E E E
|----------------|-------------------|-------------------|
|----------------|-------------------|-------------------|
|-(5)-6-7------5-|-(5)-6-7-7-7-7-7-5-|-(5)-6-7-7-7-7-7-5-|
|-(0)-0-0------0-|-(0)-0-0---------0-|-(0)-0-0---------0-|
|----------------|-------------------|-------------------|
|----------------|-------------------|-------------------|


  +E  E E E E E E E   +E  E E E E E E E   +E  E E E E E E E
|-------------------|-------------------|-------------------|
|-------------------|-------------------|-------------------|
|-(5)-6-7-7-7-7-7-5-|-(5)-6-7-7-7-7-7-5-|-(5)-6-7-7-7-7-7-5-|
|-(0)-0-0---------0-|-(0)-0-0---------0-|-(0)-0-0---------0-|
|-------------------|-------------------|-------------------|
|-------------------|-------------------|-------------------|


  +E  E E E E E E E   E E E E E E E E   E E E E E E  a  Q
|-------------------|-----------------|---------------------||
|-------------------|-----------------|---------------------||
|-(5)-6-7-7-7-7-7-7-|-7-7-7-7-7-7-7-7-|-7-7-7-7-7-7---------||
|-(0)-0-0-----------|-----------------|---------------------||
|-------------------|-----------------|---------------------||
|-------------------|-----------------|-------------/0-11\--||


 Guitar Solo
  N.C.
  Gtr I
    PM-------------------------------------------------------------------------
    S    S S S S S S S E E E E     S  S S    S S S    S S  E   E      E  E
|------------------------------|----------------------------------------------|
|------------------------------|----------------------------------------------|
|------------------------------|----------------------------------------------|
|------------------------------|----------------------------------------------|
|------------------------------|----------------------------------------------|
|---0----3-5-0-3-5-0-5-0-0-0-0-|---0--3-5----0-3-5----0-5--0---0------0--0----|
|
| Gtr II
|                                                                     ~~~~~
|                                  |-------3--------|      |--3---|
|   W                             +q       q        q      E E    E  +E.    S
|------------------------------|----------------------------------------------|
|-/13--------------------------|-(13)-----14-------14-----13-----13-(13)------|
|-/12b14-----------------------|-(12)-----14-------13-----12-----12-(12)p==10-|
|------------------------------|----------------------------------------------|
|------------------------------|----------------------------------------------|
|------------------------------|----------------------------------------------|


 ------------------------------|
   S S S S S S S S   E   E   E E
|-----------------------------------|
|-----------------------------------|
|-----------------------------------|
|-----------------------------------|
|-----------------------------------|
|--0-3-5-0-3-5-0-5---0---0---0-0----|
|
|  ~~                        ~~
|  H                +E.    S E.  S
|-----------------------------------|
|-----------------------------------|
|-----------------------------------|
|-12---------------(12)\---7-5p==3--|
|-----------------------------------|
|-----------------------------------|


                                                                       G5
  PM-------------------------------------------------------------|
  S S S S S S S S  E   E E E    S  S  S  S  S S  S  S  E     E    E    E
|----------------------------|-------------------------------------------|
|----------------------------|-------------------------------------------|
|----------------------------|-------------------------------------------|
|----------------------------|-------------------------------------------|
|----------------------------|-----------------------------------------5-|
|-0-3-5-0-3-5-0-5--0---0-0-0-|--5--5--5--5--5-5--5--5--5-----5----5----5-|
|
| ~
| H               +Q     Q      S  S  S  S  S S  S  S  S  S  S S  Q
|----------------------------|-10h13p10----10---10h13p10----10---10------|
|----------------------------|----------13---------------13------13b15---|
|----------------------------|-------------------------------------------|
|----------------------------|-------------------------------------------|
|-5---------------(5)\-------|-------------------------------------------|
|----------------------------|-------------------------------------------|


                                        F5
   PM-----------------------------|
   S  S  S  S  S S  S  S  E     E  E    E
|-------------------------------------------|
|-------------------------------------------|
|-------------------------------------------|
|-------------------------------------------|
|---------------------------------------3---|
|--3--3--3--3--3-3--3--3--3-----3--3----3---|
|
|  S  S  S  S  S S  S  S  S  S  E  Q
|-------------------------------------------|
|-10h13p10----10---10h13p10----10-10--------|
|----------12---------------12----12b14-----|
|-------------------------------------------|
|-------------------------------------------|
|-------------------------------------------|


  N.C.
   PM---------------------------------------------------------
   S   S S S S S S S E E E E   S   S S S S S S   S  E  E E E
|----------------------------|-------------------------------|
|----------------------------|-------------------------------|
|----------------------------|-------------------------------|
|----------------------------|-------------------------------|
|----------------------------|-------------------------------|
|--0---3-5-0-3-5-0-5-0-0-0-0-|-0---3-5-0-3-5-0---5--0--0-0-0-|
|
|  ~~~~~~~~~~~~~~~~~~~~~~~~~~~~~~~~~~~~~~~~~~~~~~~~~~~~
|  W                           Q.            E     +H
|----------------------------|-------------------------------|
|-/3-------------------------|-5-------------3-----(3)-------|
|-/5b7-----------------------|-7b9-----------5b7---(5)-------|
|----------------------------|-------------------------------|
|----------------------------|-------------------------------|
|----------------------------|-------------------------------|


                                     G5
 ---------------------------------|
    S  S S  S   S  S  S S   E   E  E  E
|---------------------------------------|
|---------------------------------------|
|---------------------------------------|
|---------------------------------------|
|-------------------------------------5-|
|---5--5-5--5---5--5--5-5---5---5--5--5-|
|
|                     ~~~~~~~~~
|   E.      S  +E     E    +E   E  E  E
|------------------------------10-------|
|-/10------12-(12)---13---(13)----13-12-|
|---------------------------------------|
|---------------------------------------|
|---------------------------------------|
|---------------------------------------|


                                 F5  N.C.
   PM--------------------------|      PM------------------------------------------
   S S  S  S  S S  S S   E   E E E    S  S  S  S  S  S  S  S  E    E  E     E
|----------------------------------|---------------------------------------------|
|----------------------------------|---------------------------------------------|
|----------------------------------|---------------------------------------------|
|----------------------------------|---------------------------------------------|
|--------------------------------3-|---------------------------------------------|
|--3-3--3--3--3-3--3-3---3---3-3-3-|--0--3--5--0--3--5--0--5--0----0--0-----0----|
|
|                        ~~~~~                                                 ~~~
|  E    S  S  E    E    +Q     Q      S  S  S  S  S  S  S  S  S S  E  S  S  S  S
|----------------------------------|---------------------------------------------|
|-10h==13p10------10---(10)\-------|-10h13p10----10------------------------------|
|------------12--------------------|----------12----12p10----12---12-12-10----10-|
|----------------------------------|----------------------12---------------12----|
|----------------------------------|---------------------------------------------|
|----------------------------------|---------------------------------------------|


 ---------------------------------|
    S  S  S S  S S  S  S   E  E E   E
|-----------------------------------------|
|-----------------------------------------|
|-----------------------------------------|
|-----------------------------------------|
|-----------------------------------------|
|---0--3--5-0--3-5--0--5---0--0-0---0-----|
|
|~~~~~~                ~~~~~~~
|  +E     E    S S  S  S  +Q.      +E
|-----------------------------------------|
|-----------------------------------------|
|-(10)------------------------------------|
|--------12---10---10h12-(12)-----(12)\---|
|-----------------------------------------|
|-----------------------------------------|


                                     G5                                       F5
    PM----------------------------|         PM-----------------------------|
    S  S S  S   S  S  S S   E   E  E  E     S  S  S  S   S  S  S S   E   E  E  E
|---------------------------------------|----------------------------------------|
|---------------------------------------|----------------------------------------|
|---------------------------------------|----------------------------------------|
|---------------------------------------|----------------------------------------|
|-------------------------------------5-|--------------------------------------3-|
|---5--5-5--5---5--5--5-5---5---5--5--5-|---3--3--3--3---3--3--3-3---3---3--3--3-|
|
|                     ~~~~~~~~~                      ~~~~~~~   ~~~~~~~~~
|   E.      S  +E     E    +E   E  E  E     S  S  S  S  +S  S  E    +E   E  E  E
|------------------------------10-------|-------------------------------15-------|
|-/10------12-(12)---13---(13)----13-12-|-/13-13-13-15-(15)---17---(17)----17-15-|
|---------------------------------------|----------------------------------------|
|---------------------------------------|----------------------------------------|
|---------------------------------------|----------------------------------------|
|---------------------------------------|----------------------------------------|


  N.C.
   PM---------------------------------------|
   S    S S S S S S S  E     E          E    E
|----------------------------------------------------|
|----------------------------------------------------|
|----------------------------------------------------|
|----------------------------------------------------|
|----------------------------------------------------|
|--0----3-5-0-3-5-0-5--0-----0----------0----0-------|
|
|  ~~~~~                        ~~~~~~
|  H                   S  S  S  S      +E    S  S
|---------------------17--------------------17h20p===|
|-20b22------------------20-17-20b22==(20)r----------|
|----------------------------------------------------|
|----------------------------------------------------|
|----------------------------------------------------|
|----------------------------------------------------|


                                                                                           G5
   PM--------------------------------------------------------------------------------|
   S S  S  S  S  S S  S  E  E      E      E    S  S  S  S  S  S  S  S  E     E        E     E
|-------------------------------------------|-------------------------------------------------|
|-------------------------------------------|-------------------------------------------------|
|-------------------------------------------|-------------------------------------------------|
|-------------------------------------------|-------------------------------------------------|
|-----------------------------------------5-|-----------------------------------------------5-|
|--0-3--5--0--3--5-0--5--0--0------0------5-|--5--5--5--5--5--5--5--5--5-----5--------5-----5-|
|
|                        \1     |
|                        |------3------|                                     |--3--|
|  S S  S  S  S  S S  S  Q     +Q     +Q       S  S  S  S  S  S  S  S  S  S  S  S  S  S  S  E
|-17---17-----------------------------------|-20-20-17----17----------17-17-------------------|
|---------20-17-20---20-20----(20)---(20)---|----------20----20-17-20-------20-17----20-17----|
|-------------------------------------------|-------------------------------------19-------19-|
|-------------------------------------------|-------------------------------------------------|
|-------------------------------------------|-------------------------------------------------|
|-------------------------------------------|-------------------------------------------------|


                                             F5
   PM----------------------------------|
   S  S  S  S  S  S  S  S   E    E      E     E
|-----------------------------------------------|
|-----------------------------------------------|
|-----------------------------------------------|
|-----------------------------------------------|
|---------------------------------------------3-|
|--3--3--3--3--3--3--3--3---3----3------3-----3-|
|
|  S  S  S  S  S  S  S  S   E    S   S  S  S  E
|-----------------------------------------------|
|-20-20-17----17----------[17]-[17]-------------|
|----------19----19-17-19-----------19----------|
|--------------------------------------19s17-15-|
|-----------------------------------------------|
|-----------------------------------------------|


  N.C.                   F5  N.C.                      F5
   PM------------------|       PM--------------------|
   S S S S S S S S E E E E     S   S S S S S S S E E E E
|--------------------------|-----------------------------|
|--------------------------|-----------------------------|
|--------------------------|-----------------------------|
|--------------------------|-----------------------------|
|------------------------3-|---------------------------3-|
|--0-3-5-0-3-5-0-5-0-3-0-3-|---0---3-5-0-3-5-0-5-0-3-0-3-|
|
|  ~~~~~~~~~~~~~~~~~~~~~~~~~~~~~~~~
|  W                          +H                 H
|--------------------------|-----------------------------|
|--------------------------|-----------------------------|
|--------------------------|-----------------------------|
|--------------------------|-----------------------------|
|-17-----------------------|-(17)\-----------------------|
|--------------------------|-----------------------------|


  D5
    PM----------------------------|
  E E E E E E E E   E E E E E E E E
|-----------------|-----------------||
|-----------------|-----------------||
|-----------------|-----------------||
|-----------------|-----------------||
|-0---------------|-----------------||
|-0-0-0-0-0-0-0-0-|-8-8-0-0-8-8-0-0-||
|
| W                 W
|-----------------|-----------------||
|-----------------|-----------------||
|-----------------|-----------------||
|-----------------|-----------------||
|-----------------|-----------------||
|-----------------|-----------------||


   Chorus
    D5     G#5G5     G#5  F5     G5 G#G5 F5G5
    Gtrs I, II
    Q.      E Q.      E   Q.      E E  E E  E
||----------------------|---------------------|
||o---------------------|---------------------|
||----------------------|---------------------|
||----------------------|---------------------|
||o-0------/6-5------/6-|-3------/5-6-\5-3-/5-|
||--0------/6-5------/6-|-3------/5-6-\5-3-/5-|
|
|   Gtr III
|   E  E E  E E  E E  E   E  E E  E E  E E  E
||----------------------|---------------------|
||o---------------------|---------------------|
||--7--7-7--7-7--7-7--7-|-7--7-7--7-7--7-7--7-|
||----------------------|---------------------|
||o---------------------|---------------------|
||----------------------|---------------------|


  D5     G#5G5     G#5  F5
                          PM----------|
  Q.      E Q.      E   E E E E E E E E  4x
|---------------------|------------------||
|---------------------|-----------------o||
|---------------------|------------------||
|---------------------|------------------||
|-0------/6-5------/6-|-3---------------o||
|-0------/6-5------/6-|-3-3-3-3-3-3-3-3--||
|
| E  E E  E E  E E  E   E E E E E E E E  4x
|---------------------|------------------||
|---------------------|-----------------o||
|-7--7-7--7-7--7-7--7-|-7-7-7-7-7-7-7-7--||
|---------------------|------------------||
|---------------------|-----------------o||
|---------------------|------------------||


 Outro
  N.C.
  PM----------|             PM----|             PM----|
  E E E E E E E E   +E  E E E E E E E   +E  E E E E E E E
|-----------------|-------------------|-------------------|
|-----------------|-------------------|-------------------|
|---------------5-|-(5)-6-7---------5-|-(5)-6-7---------5-|
|---------------0-|-(0)-0-0---------0-|-(0)-0-0---------0-|
|-----------------|-------------------|-------------------|
|-3-3-3-3-3-3-3---|---------0-0-0-0---|---------0-0-0-0---|
|
| E E E E E E E E    W                   W
|-----------------|-------------------|-------------------|
|-----------------|-------------------|-------------------|
|-7-7-7-7-7-7-7-7-|-------------------|-------------------|
|-----------------|-------------------|-------------------|
|-----------------|-------------------|-------------------|
|-----------------|-------------------|-------------------|


 4/4
          PM----|             PM----|
  +E  E E E E E E E   +E  E E E E E E E
|-------------------|-------------------|
|-------------------|-------------------|
|-(5)-6-7---------5-|-(5)-6-7---------5-|
|-(0)-0-0---------0-|-(0)-0-0---------0-|
|-------------------|-------------------|
|---------0-0-0-0---|---------0-0-0-0---|


          PM----|             PM----|
  +E  E E E E E E E   +E  E E E E E E E
|-------------------|-------------------|
|-------------------|-------------------|
|-(5)-6-7---------5-|-(5)-6-7---------5-|
|-(0)-0-0---------0-|-(0)-0-0---------0-|
|-------------------|-------------------|
|---------0-0-0-0---|---------0-0-0-0---|


          PM----|             PM----|
  +E  E E E E E E E   +E  E E E E E E E   +E  E E E H
|-------------------|-------------------|----------------*|
|-------------------|-------------------|----------------*|
|-(5)-6-7---------5-|-(5)-6-7---------5-|-(5)-6-7--------*|
|-(0)-0-0---------0-|-(0)-0-0---------0-|-(0)-0-0--------*|
|-------------------|-------------------|----------------*|
|---------0-0-0-0---|---------0-0-0-0---|----------------*|



Duration Legend
---------------
W - whole; H - half; Q - quarter; E - 8th; S - 16th; T - 32nd; X - 64th; a - acciaccatura
+ - note tied to previous; . - note dotted; .. - note double dotted
Uncapitalized letters represent notes that are staccato (1/2 duration)
Irregular groupings are notated above the duration line
Duration letters will always appear directly above the note/fret number it represents the
duration for.  Duration letters with no fret number below them represent rests.  Multi-
bar rests are notated in the form Wxn, where n is the number of bars to rest for.  Low
melody durations appear below the staff

Tablature Legend
----------------
 h   - hammer-on
 p   - pull-off
 b   - bend
 pb  - pre-bend
 r   - bend release (if no number after the r, then release immediately)
 /\  - slide into or out of (from/to "nowhere")
 s   - legato slide
 S   - shift slide
 - natural harmonic
[n]  - artificial harmonic
n(n) - tapped harmonic
 ~   - vibrato
 tr  - trill
 T   - tap
 TP  - trem. picking
 PM  - palm muting
\n/  - tremolo bar dip; n = amount to dip
 \n  - tremolo bar down
 n/  - tremolo bar up
/n\  - tremolo bar inverted dip
 =   - hold bend; also acts as connecting device for hammers/pulls
 <> - volume swell (louder/softer)
 x   - on rhythm slash represents muted slash
 o   - on rhythm slash represents single note slash

Misc Legend
-----------
 |  - bar
||  - double bar
||o - repeat start
o|| - repeat end
*|  - double bar (ending)
 :  - bar (freetime)
 $  - Segno
 &  - Coda
Tempo markers -  = BPM(8/16=s8/s16), where s8 = swing 8ths, s16 = swing 16ths

comments
We did not receive enough feedback on this tab! Please rate:
print report bad tab
1 2 3 4 5
I want to post or [tab]
guest
You may want to rate the tab now too:
select rating
Please do not post tabs as comments. Select "correction" instead!