Oops, an error
Loading. Please wait.

Time Tab

2,902 views 6 this week
no commentswrite comment
1 2 3 4 5
worth learning
x 3
Autoscroll
+/-
esc
set tempo
stop
Contributor
WARNING: You are trying to view
                                    content from Ultimate-Guitar.com
                                    in an unauthorized application,
                                    which is prohibited.

                                    Please use an official Ultimate
                                    Guitar Tabs application for iPhone,
                                    iPad or Android to access legitimate
                                    chords, guitar, bass, and drum tabs
                                    from Ultimate-Guitar.com database.

                                    Type "ultimate guitar tabs" in Apple
                                    App Store's or Android Market's
                                    search to find the application.
ANTHRAX:TIME 
PERSISTANCE OF TIME

TICK ON L CHANNEL, TOCK ON R CHANNEL

           TERM FADE IN                               

	|------|-----------|---------------|-----------|
	|------|-----------|---------------|-----------|
	|------|-----------|---------------|-----------|
	|--2---|-2---------|--2------------|-(2)-------|
	|--2---|-2---------|--2------------|-(2)-------|
	|--0---|-0---------|--0------------|-(0)-------|
        |15SEC |20 SEC     |25 SEC         |          
|
	|      |           |               |           |
	|      |           |               |           |
        |      |  B     B  |   \\\\\     B |SLIDE BEND
OUT SLOW   
	|------|-----------|-22------------|-----------|   
        |------|-----------|---------------|-----------|
	|------|-------9---|---------------|-----------|
	|------|-----------|------------21-|-----------|  
	|------|-7---------|---------------|-----------|  
	|------|-----------|---------------|-----------|

                                  END 2
         FIGURE1                  11X
         P.M.------------------------|
	|-----------------------------|
	|-----------------------------|
	|-----------------------------|
	|-----------------------------|
	|-2-X-2-X-2-2-X-2-X-2-X-2-2-X-|
	|-0-X-0-X-0-0-X-0-X-0-X-0-0-X-|

     LONG  BEND      W/FIGURE 2ND REPEAT        B
SLIDE B
	|-----------------------------|--------------------|
	|-----------------------------|--------------------|
	|-14--------------------------|--------14--\12-----|
	|-----------------------------|--------------------|
	|-----------------------------|--------------------|
	|-----------------------------|--------------------|

	

                                                      
       4 TIMES

||-----------------------------|------------------------------||
||-----------------------------|------------------------------||
||-9-X-9-X-9-9-X-9-X-9-X-9-9-X-|-8-X-8-X-8-8-X-8-X-8-X-8-8-X--||
||-9-X-9-X-9-9-X-9-X-9-X-9-9-X-|-8-X-8-X-8-8-X-8-X-8-X-8-8-X--||
||-7-X-7-X-7-7-X-7-X-7-X-7-7-X-|-6-X-6-X-6-6-X-6-X-6-X-6-6-X--||
||-----------------------------|------------------------------||



	|-----------------------------|
	|-----------------------------|
	|-9-X-9-X-9-9-X-9-X-9-X-9-9-X-|
	|-9-X-9-X-9-9-X-9-X-9-X-9-9-X-|
	|-7-X-7-X-7-7-X-7-X-7-X-7-7-X-|
	|-----------------------------|




       VERSE
	
||---------------------------|----------------------------|
||---------------------------|----------------------------|
||---------------------------|----------------------------|
||-9---9---9-9---9---9---9-9-|-8---8---8-8---8---8---8-8--|
||-9---9---9-9---9---9---9-9-|-8---8---8-8---8---8---8-8--|
||-7---7---7-7---7---7---7-7-|-6---6---6-6---6---6---6-6--|



|--------------------------|----------------------------|
|--------------------------|----------------------------|
|--------------------------|----------------------------|
|-4---4---4-4---4---4--4-4/|/7---7---7-7---7---7---7-7--|
|-2---2---2-2---2---2--2-2/|/7---7---7-7---7---7---7-7--|
|-2---2---2-2---2---2--2-2/|/5---5---5-5---5---5---5-5--|


|---------------------------|----------------------------|
|---------------------------|----------------------------|
|---------------------------|----------------------------|
|-9---9---9-9---9---9---9-9-|-8---8---8-8---8---8---8-8--|
|-9---9---9-9---9---9---9-9-|-8---8---8-8---8---8---8-8--|
|-7---7---7-7---7---7---7-7-|-6---6---6-6---6---6---6-6--|



|-----------------|-----------------|-----------------|
|-----------------|-----------------|-----------------|
|-----------------|-----------------|-----------------|
|-5---5---5-5---5-|---5---5-5-5-5---|-5---5-5---5---5-|
|-5---5---5-5---5-|---5---5-5-5-5---|-5---5-5---5---5-|
|-3---3---3-3---3-|---3---3-3-3-3---|-3---3-3---3---3-|

                               

|-----------------|------------------|------------------|
|-----------------|------------------|------------------|
|-----------------|------------------|------------------|
|---5-5-5-5---5---|------------------|------------------|
|---5-5-5-5---5---|-5-------------5--|------------------|
|---3-3-3-3-0-3-0-|-----------7------|----0-0-0-0-0-7-7-|



|-----------------|------------------------|--------------------|
|-----------------|------------------------|--------------------|
|-----------------|------------------------|--------------------|
|-----------------|------------------------|--------------------|
|-5~~~--------5~~-|-(5)--------------------|--5~~~~----------5~~|
|---------7-7-----|------0--0--0-0-0---7-7-|------------7-7-----|


                                                      
      

|-----------------|---------------------|----------------||
|-----------------|---------------------|----------------||
|-----------------|---------------------|----------------||
|-----------------|---------------------|----------------||
|-----------------|---5~~~-----------5~~|----5-----------||
|-----0------7--7-|-------------7-7-----|--------0-0-0-0-||


  
          BRIDGE


|-----------------|-----------------|-----------------|
|-----------------|-----------------|-----------------|
|-----------------|-----------------|-----------------|
|---------2---2-2-|---------2---2-2-|---------2---2-2-|
|---------0---0-0-|---------0---0-0-|---------0---0-0-|
|-3---3-3---3-----|-3---3-3---3-----|-2-2-2-2---2-----|




|-----------------|-----------------|--------------------|
|-----------------|-----------------|--------------------|
|-----------------|-----------------|--------------------|
|-----------------|-------8-X-8-X-8-|-------8-X-8----X-8-|
|---------3-3-3-3-|-------8-X-8-X-8-|-------8-X-8----X-8-|
|-2---2-2-5-2-5-5-|-0-0-0-6-X-6-X-6-|-0-0-0-6-X-6----X-6-|
                      
                                   
       
|-----------------|-----------------|--------------------|
|-----------------|-----------------|--------------------|
|-----------------|-----------------|---------3---3--3---|
|-------8-X-8-X-8-|-------8-X-8-X-8-|---------3---3--3---|
|-------8-X-8-X-8-|-------8-X-8-X-8-|--------------------|
|-0-0-0-6-X-6-x-6-|-0-0-0-6-x-6-x-6-|-3-3-3-3---3--------|
 
                 


|-----------------|-----------------|-----------------|
|-----------------|-----------------|-----------------|
|-----------------|-----------------|---------2---2-2-|
|---------2---2-2-|-----------------|---------2---2-2-|
|---------0---0-0-|---------3-3-3-3-|---------0---0-0-|
|-3---3-3---3-----|-2---2-2-5-2-5-5-|-1-1-1-1---1-----|



|-----------------|-----------------|-----------------|
|-----------------|-----------------|-----------------|
|---------2---2-2-|-----------------|-------9-X-9-X-9-|
|---------2---2-2-|-------8-X-8-X-8-|-------8-X-8-X-8-|
|---------0---0-0-|-------8-X-8-X-8-|-------7-X-7-X-7-|
|-1-1-1-1---1-----|-0-0-0-6-X-6-X-6-|-0-0-0-----------|



|--------------------|-----------------|-----------------|
|-------11-X-11-X-11-|-----------------|-----------------|
|-------10-X-10-X-10-|-------9-X-9-X-9-|-----------------|
|-------8--X-8--X-8--|-------8-X-8-X-8-|---------3---3-3-|
|--------------------|-------7-X-7-X-7-|---------1---1-1-|
|-0-0-0--------------|-0-0-0-----------|-3-3-3-3---------|



|-----------------|-----------------|-----------------|
|-----------------|-----------------|-----------------|
|-----------------|-----------------|-----------------|
|---------3---3-3-|---------3---3-3-|---------3---3-3-|
|---------1---1-1-|---------1---1-1-|---------1---1-1-|
|-3-3-3-3---------|-2-2-2-2---------|-2-2-2-2---------|


  chorus 4x			
          FIGURE 2                                    END 2
|---------------|---------------|---------------|-----------------|
|---------------|---------------|---------------|-----------------|
|---------------|---------------|---------------|-----------------|
|---------------|---------7\6/7-|---------9\7/9-|---------12\10/11|
|---------9\7/9-|---------5\4/5-|---------7\5/7-|---------10\8/10-|
|-0-0-0-0-7\5/7-|-0-0-0-0-------|-0-0-0-0-------|-0-0-0-0---------|


                                                    
back to verse 
|--------|----------|----------------------------------|-----|
|--------|----------|----------------------------------|-----|
|-9------|-8--------|----------------------------------|-----|
|-9------|-8-----9--|-6-6-6-6-6-6-6-6-6-6-6-6-6-6-6-6--|-6---|
|-7------|-6-----9--|-6-6-6-6-6-6-6-6-6-6-6-6-6-6-6-6--|-6---|
|--------|-------7--|-4-4-4-4-4-4-4-4-4-4-4-4-4-4-4-4--|-4---|

 AFTER 2ND TIME
           HOLD
	|-------|---------|    
	|-------|---------|
	|-------|---------|
	|--12---|-(12)----|
	|--10---|-(10)----|
	|-------|---------|

	
         FIGURE1 W/SOLO             12X
         P.M.------------------------|
	|-----------------------------|
	|-----------------------------|
	|-----------------------------|
	|-----------------------------|
	|-2-X-2-X-2-2-X-2-X-2-X-2-2-X-|
	|-0-X-0-X-0-0-X-0-X-0-X-0-0-X-|

	
	W/SOLO CONT..
         FIGURE 3

|-----------------|-----------------|-----------------|
|-----------------|-----------------|-----------------|
|-----------------|-----------------|-----------------|
|---------2---2-2-|---------2---2-2-|---------2---2-2-|
|---------0---0-0-|---------0---0-0-|---------0---0-0-|
|-3-3-3-3---3-----|-3-3-3-3---3-----|-3-3-3-3---2-----|

	
	|------------------|---------------|---------------|
	|------------------|---------------|---------------|
	|------------------|---------------|---------------|
	|----------2---2-2-|---------------|---------9\7/9-|
	|----------0---0-0-|---------9\7/9-|---------7\5/7-|
	|-2-2-2-2----2-----|-0-0-0-0-7\5/7-|-0-0-0-0-------|	

	|---------------|----------------|END F3
	|---------------|----------------|  3X
	|---------------|----------------|
	|---------------|---------9\7/9--|
	|---------9\7/9-|---------7\5/7--|
	|-0-0-0-0-7\5/7-|-0-0-0-0--------|


       
|-----------------|-----------------|-----------------|
|-----------------|-----------------|-----------------|
|-----------------|-----------------|-----------------|
|---------2---2-2-|---------2---2-2-|---------2---2-2-|
|---------0---0-0-|---------0---0-0-|---------0---0-0-|
|-3-3-3-3---3-----|-3-3-3-3---3-----|-3-3-3-3---2-----|


						END SOLO

|-----------------|-----------------|-----------------|
|-----------------|-----------------|-----------------|
|-----------------|---------2---2-2-|-----------------|
|---------2---2-2-|---------2---2-2-|---------2---2-2-|
|---------0---0-0-|---------0---0-0-|---------0---0-0-|
|-2-2-2-2---2-----|-1-1-1-1---1-----|-1-1-1-1---1-----|




	||--------------|--------------|-----------------|
	||--------------|--------------|-----------------|
	||--------------|--------------|-----------------|
	||--------------|--------------|-----------------|
	||-----5~~------|-5~~----------|-2-X-2-X-2-2-X-2-|
	||-7-7------7-7-|------0-0-0-0-|-0-X-0-X-0-0-X-0-|

                     3X    FIGURE 4                 
4X END 4
	|----------------||--------------|--------------||
	|----------------||--------------|--------------||
	|----------------||--------------|--------------||
	|----------------||--------------|--------------||
	|-X-2-X-2-2---2--||-----5~~------|-5~~----------||       
        |-X-0-X-0-0---0--||-7-7------7-7-|------0-0-0-0-||

                                     4X
	||---------------|---------------||
	||---------------|---------------||
	||---------------|---------------||
	||---------------|---------------||
	||-2-X-2-X-2-2-X-|-2-X-2-X-2-2-X-||
	||-0-X-0-X-0-0-X-|-0-X-0-X-0-0-X-||


         FIGURE 5
	|--------|--------|-------|--------|--------|-------|
	|--------|--------|-------|--------|--------|-------|
	|-9------|-8---4--|-7-----|(7)-----|-9------|-8---4-|
	|-9------|-8---4--|-7-----|(7)-----|-9------|-8---4-|
	|-7------|-6---2--|-5-----|(5)-----|-7------|-6---2-|
	|--------|--------|-------|--------|--------|-------|


			2X	
	|--------|---------|END F5
	|--------|---------|
	|-7------|-6---2---|
	|-7------|-6---2---|
	|-5------|-4---0---|
	|--------|---------|


	FIGURE 2  2X

	GRADUAL FASTER	REPEAT AND FADE 	
	|-----------------|
	|-----------------|
	|-----------------|
	|-----------------|
	|-2-2-2-2-2-2-2-2-|
	|-0-0-0-0-0-0-0-0-|






__________________________________________________
comments
We did not receive enough feedback on this tab! Please rate:
print report bad tab
1 2 3 4 5
I want to post or [tab]
guest
You may want to rate the tab now too:
select rating
Please do not post tabs as comments. Select "correction" instead!