Oops, an error
Loading. Please wait.

Ghosts Tab

ver1
ver1

Whole song

Interactive

More versions @911Tabs.com
1,619 views 1 this week
no commentswrite comment
1 2 3 4 5
excellent!
x 1
Autoscroll
+/-
esc
set tempo
stop
Contributor
Difficulty
intermediate
Hey! There's an official Ultimate Guitar app which is ideal
for learning songs when you're away from computer. Get the app
WARNING: You are trying to view
                                    content from Ultimate-Guitar.com
                                    in an unauthorized application,
                                    which is prohibited.

                                    Please use an official Ultimate
                                    Guitar Tabs application for iPhone,
                                    iPad or Android to access legitimate
                                    chords, guitar, bass, and drum tabs
                                    from Ultimate-Guitar.com database.

                                    Type "ultimate guitar tabs" in Apple
                                    App Store's or Android Market's
                                    search to find the application.
================================================================================
                              A N T I M A T T E R

                                       -

                                  G H O S T S
================================================================================


                                  LEAVING EDEN
                        (c)  Prophecy Productions - 2007
                        http://www.antimatteronline.com/


                                 Standard Tuning
                                   E A D G B E

                                 Tempo = 116 BPM
                              Time Signature = 4/4



                          -----------------------------
                                 Transcribed by

                                 PADDY MCMULLAN
                           pmtabs (@t) gmail [dot] com

                                   Version 1.0
                                11th October 2009
                             -----------------------

                             Tablature Symbols Used:


 ( )       -  Ghost Note/Tied Note/Implied Note
 0h2       -  Hammer-On
 2p0       -  Pull-Off
  ^        -  Strum down (Low to high strings)
  v        -  Strum up (High to low strings)


                             -----------------------
                                  Chords Used:
                             -----------------------

                  C          G6        F7M        Am         Em

           E||----0----||----0----||----0----||----0----||----0----||
           B||----1----||----0----||----1----||----1----||----0----||
           G||----0----||----0----||----2----||----2----||----0----||
           D||----2----||----0----||----3----||----2----||----2----||
           A||----3----||----2----||----3----||----0----||----2----||
           E||---------||----3----||----1----||---------||----0----||


                                 Asus2      Em/C

                             ||----0----||----0----||
                             ||----0----||----0----||
                             ||----2----||----0----||
                             ||----2----||----2----||
                             ||----0----||----3----||
                             ||---------||---------||



                                   ===========
                                   Song Notes:
                                   ===========


 The song consists of several basic sections which are repeated throughout the
 tab, but no two repeats are exactly the same so the variations are tabbed in
           full should you want to match the CD track note-for-note.

 All arpeggios are finger-picked; allow their notes to ring wherever possible.



================================================================================
Section 1: Acoustic Guitar (Play 5 times)
================================================================================


The first 7 bars are all you need to play this section (repeated 5 times) but if
you want to match the CD track note-for-note play it once through.  Each 7 bar
segment is identified both by double bar lines and the use of the C chord.  The
vocals enter on bar 14, after the 7-bar segment has been played twice.


    C                         G6
||-------------0-----------|-----------------------0--|
||--1-------------1-----0--|--------------0-----------|
||--0-------0--------0-----|-----------0-----0--------|
||-------2-----------------|--------0-----------0-----|
||--3----------------------|-----2--------------2-----|
||-------------------------|--3-----------------------|


   F7M                         Am
|------------------------0--|-------------0----------|
|--1------------1-----------|---------------------1--|
|------------2-----2--------|--------2---------2-----|
|---------3-----------3-----|-----2------------------|
|------3--------------------|--0---------------------|
|--1------------------------|------------------------|


|-----------0--------------|-------------0----------|
|--------------0-----------|----------1--1-------1--|
|--------2-----------------|-------2----------2-----|
|-----2--------------2-----|--2---------------------|
|--0-----0-----0--0-----0--|------------------------|
|--------------------------|------------------------|


                              C
|--------------0----------||--------------0-----------|
|-----------1----------1--||-----------1-----1-----0--|
|--------2----------2-----||--------0-----------0-----|
|-----2-------------------||-----2--------------------|
|--0----------------------||--3-----------------------|
|-------------------------||--------------------------|


   G6                         F7M
|-----------------------0--|------------------------0--|
|--------------0-----------|--1------------1-----------|
|-----------0-----0--------|--2---------2-----2--------|
|--------0-----------0-----|---------3-----------3-----|
|-----2--------------------|------3--------------------|
|--3-----------------------|--1------------------------|


   Am
|--------------0-----------|-----------0--------------|
|-----------1-----1-----1--|--------------0-----------|
|--------2-----------2-----|--------2--------2--------|
|-----2--------------------|-----2--------------2-----|
|--0-----------------------|--0-----0--0-----------0--|
|--------------------------|--------------------------|


|--------------0-----------|--------------0----------|
|-----1-----1-----1-----1--|-----------1----------1--|
|--------2-----------2-----|--------2-----2----2--0--|
|--2-----------------------|-----2-------------------|
|--------------------------|--0----------------------|
|--------------------------|-------------------------|


    C                          G6                       
||--------------0-----------|-----------------------0--|
||-----------1-----1-----0--|--------------0-----------|
||--------0-----------0-----|-----------0-----0--------|
||-----2--------------------|-----0--------------0-----|
||--3-----------------------|--------------------------|
||--------------------------|--3-----3-----------------|


   F7M                         Am
|------------------------0--|--------------0---------|
|--1------------1-----------|-----------1------------|
|--2---------2-----2--------|--------2----------2----|
|---------3-----------3-----|-----2------------------|
|------3--------------------|--0---------------------|
|--1------------------------|------------------------|


|--------------------------|--------------0-----------|
|--------------0-----------|-----1-----1-----1-----1--|
|--------2--------2--------|--------2-----------2-----|
|-----2-----2--------2-----|--2-----------------------|
|--0-----0--------------0--|--------------------------|
|--------------------------|--------------------------|


                               C
|--------------0-----------||--------------0-----------|
|-----------1-----1-----1--||-----------1-----1-----0--|
|--------2-----------2--0--||--------0-----------0-----|
|-----2--------------------||-----2--------------------|
|--0-----------------------||--3-----------------------|
|--------------------------||--------------------------|


   G6                         F7M
|-----------------------0--|------------------------0--|
|--------------0-----------|--1------------1-----------|
|-----------0-----0--------|--2---------2-----2--------|
|--------0-----------0-----|---------3-----------3-----|
|-----2--------------------|------3--------------------|
|--3-----------------------|--1------------------------|


   Am
|--------------0-----------|-----------0--------------|
|-----------1-----1-----1--|--------------0-----------|
|--------2-----------2-----|--------2--------2--------|
|-----2--------------------|-----2--------------2-----|
|--0-----------------------|--0--------------------0--|
|--------------------------|--------------------------|


|--------------0-----------|--------------0-----------|
|-----1-----1-----1-----1--|-----------1-----1-----1--|
|--------2-----------2-----|--------2-----------2--0--|
|--2-----------------------|-----2--------------------|
|--------------------------|--0-----------------------|
|--------------------------|--------------------------|


    C                          G6
||--------------0-----------|-----------------------0--|
||-----------1-----1-----0--|--------------0-----------|
||--------0-----------0-----|-----------0-----0--------|
||-----2--------------------|--------0-----------0-----|
||--3-----------------------|-----2--------------------|
||--------------------------|--3-----------------------|


   F7M                         Am
|------------------------0--|--------------0-----------|
|--1------------1-----------|-----------1-----1-----1--|
|--2---------2-----2--------|--------2-----------2-----|
|---------3-----------3-----|-----2--------------------|
|------3--------------------|--0-----------------0-----|
|--1------------------------|--------------------------|


|-----------0--------------|--------------0-----------|
|--------------0-----------|-----1-----1-----1-----1--|
|--------2--------2--------|--------2-----------2-----|
|-----2--------------2-----|--2-----------------------|
|--0--------------------0--|--------------------------|
|--------------------------|--------------------------|


|--------------0-----------||
|-----------1--1--1-----1--||
|--------2-----------2--0--||
|-----2--------------------||
|--0-----------------------||
|--------------------------||



================================================================================
Section 2: Acoustic Guitar (Play once)
================================================================================


    F7M                         Am
||------------------------0--|--------------0-----------|
||---------------1-----------|-----------1-----1-----1--|
||------------2-----2--------|--------2-----------2-----|
||---------3-----------3-----|-----2--------------------|
||------3--------------------|--0-----------------------|
||--1------------------------|--------------------------|


|-----------0--------------|---------------0-----------|
|--------------0-----------|-(0) h1-----1-----1-----1--|
|--------2--------2--------|---------2-----------2--0--|
|-----2--------------2-----|--2------------------------|
|--0--------------------0--|--0------------------------|
|--------------------------|---------------------------|


   F7M                         Am
|------------------------0--|--------------0-----------|
|--1------------1-----------|-----------1-----1-----1--|
|------------2-----2--------|--------2-----------2-----|
|---------3-----------3-----|-----2--------------------|
|------3--------------------|--0-----------------------|
|--1------------------------|--------------------------|

                              Em
|--------------0--------0--|----------------------------|
|-----------1-----1-----1--|--------------0 h 1 p 0-----|
|--------2-----------2-----|-----------0-------------0--|
|-----2--------------------|--------2-------------------|
|--0-----------------------|-----2----------------------|
|--------------------------|--0-------------------------|


|----------------------0--|----------------------------|
|--------------0----------|--------------0 h 1 p 0-----|
|--------------0----------|-----------0-------------0--|
|--2--------2-------2-----|--------2-------------------|
|--------2----------------|-----2----------------------|
|-----0-------------------|--0-------------------------|


//    barely audible    \\
|--------------------0--||
|-----------------------||
|-----------------------||
|--2--------------------||
|-------2---------------||
|------------0----4-----||



================================================================================
The Acoustic Guitar plays Section 1 three times [Variations outlined below]
================================================================================


     C                          G6
||--------------0-----------|-----------------------0--|
||-----------1-----1-----0--|--------------0-----------|
||--------0-----------0-----|-----------0-----0--------|
||-----2--------------------|--------0-----------0-----|
||--3-----------------------|-----2--------------------|
||--------------------------|--3-----------------------|


   F7M                         Am
|------------------------0--|--------------0----------|
|--1------------1-----------|-----------1----------1--|
|--2---------2-----2--------|--------2----------2-----|
|---------3-----------3-----|-----2-------------------|
|------3--------------------|--0----------------------|
|--1------------------------|-------------------------|


|-----------0---------------|--------------0-----------|
|--------------0----1-------|-----1-----1-----1-----1--|
|--------2--------2---------|--------2-----------2-----|
|-----2---------------2-----|--2-----------------------|
|--0-----0---------------0--|--------------------------|
|---------------------------|--------------------------|


                               C
|--------------0-----------||--------------0-----------|
|-----------1-----1-----1--||-----------1-----1-----0--|
|--------2-----------2--0--||--------0-----------0-----|
|-----2--------------------||-----2--------------------|
|--0-----------------------||--3-----------------------|
|--------------------------||--------------------------|


   G6                         F7M
|-----------------------0--|------------------------0--|
|--------------0-----------|--1------------1-----------|
|-----------0-----0--------|--2---------2-----2--------|
|--------0-----------0-----|---------3-----------3-----|
|-----2--------------------|------3--------------------|
|--3-----------------------|--1------------------------|


   Am
|--------------0----------|-----------0--------------|
|--------1-------------1--|--------------0-----------|
|-----------2-------2-----|--------2--------2--------|
|-----2-------------------|-----2--------------2-----|
|--0----------------------|--0-----0--------------0--|
|-------------------------|--------------------------|


|--------------0-----------|--------------0-----------|
|-----1-----1-----1-----1--|-----------1-----1-----1--|
|--------2-----------2-----|--------2-----------2--0--|
|--2-----------------------|-----2--------------------|
|--------------------------|--0-----------------------|
|--------------------------|--------------------------|


    C                          G6
||--------------0-----------|-----------------------0--|
||-----------1-----1-----0--|--------------0-----------|
||--------0-----------0-----|-----------0-----0--------|
||-----2--------------------|--------0-----------0-----|
||--3-----------------------|-----2--------------------|
||--------------------------|--3-----------------------|


   F7M                         Am
|------------------------0--|--------------0----------|
|--1------------1-----------|--------1-------------1--|
|--2---------2-----2--------|-----------2-------2-----|
|---------3-----------3-----|-----2-------------------|
|------3--------------------|--0----------------------|
|--1------------------------|-------------------------|


|-----------0--------------|--------------0-----------|
|--------------0-----------|-----1-----1-----1-----1--|
|--------2--------2--------|--------2-----------2-----|
|-----2--------------2-----|--2-----------------------|
|--0-----0--------------0--|--------------------------|
|--------------------------|--------------------------|


|--------------0-----------||
|-----------1-----1--1--1--||
|--------2-----------0-----||
|-----2--------------------||
|--0-----------------------||
|--------------------------||



================================================================================
The Acoustic Guitar plays Section 2 once [Variations outlined below]
================================================================================


    F7M                         Am
||------------------------0--|--------------0-----------|
||---------------1-----------|-----------1-----1-----1--|
||------------2-----2--------|--------2-----------2-----|
||---------3-----------3-----|-----2--------------------|
||------3--------------------|--0-----------------------|
||--1------------------------|--------------------------|


|-----------0--------------|---------------0-----------|
|--------------0-----------|-(0) h1-----1-----1-----1--|
|--------2--------2--------|---------2-----------2-----|
|-----2--------------2-----|--2------------------------|
|--0--------------------0--|---------------------------|
|--------------------------|---------------------------|


   F7M                         Am
|------------------------0--|--------------0-----------|
|--1------------1-----------|-----------1-----1-----1--|
|------------2-----2--------|--------2-----------2-----|
|---------3-----------3-----|-----2--------------------|
|------3--------------------|--0-----------------------|
|--1------------------------|--------------------------|


                             Em
|--------------0--------0--|----------------------------|
|-----------1-----1-----1--|--------------0 h 1 p 0-----|
|--------2-----------2-----|-----------0-------------0--|
|-----2--------------------|--------2-------------------|
|--0-----------------------|-----2----------------------|
|--------------------------|--0-------------------------|


|-----------------------0--|----------------------------|
|--------------0-----------|--------------0 h 1 p 0-----|
|--------------0-----------|-----------0-------------0--|
|--2--------2--------2-----|--------2-----2-------------|
|--------2--------2--------|-----2----------------------|
|-----0--------------------|--0-------------------------|


|-----------------------0--|----------------------------|
|--------------0--------0--|--------------0 h 1 p 0-----|
|--------------0--0--------|-----------0-------------0--|
|--2--------2--------2-----|--------2-------------------|
|--------2-----------------|-----2----------------------|
|-----0--------------------|--0-------------------------|


|-----------------------0--|--------------0--------|--(0)--------------||
|--------------0--------0--|--------------0--------|--(0)--------------||
|--------------0--0--------|-----------0-----------|--(0)--------------||
|--2--------2--------2-----|--------2--------------|--(2)--------------||
|--------2-----------------|-----2-----------------|--(2)--------------||
|-----0--------------------|--0--------------------|--(0)--------------||



================================================================================
Section 3: Acoustic Guitar (Play 3 times)
================================================================================


    C                       G6                      F7M
    ^          ^      v     ^  v      ^       v     ^        ^    ^  v
||-------------0---------|-----------------------|-----------0-------0--|
||--1----------1------0--|--0--0------3----------|--1--------1----1--1--|
||--0----------0------0--|--0--0------0----2--2--|--2--------2----2--0--|
||--0 h 2------2------0--|--0--0------0-------3--|--3--------3----3--0--|
||--3----------3------0--|--2--2------2-------3--|--3-------------3--0--|
||-----------------------|--3---------3-------0--|--1-------------------|


  Am
   ^        ^      v     ^    ^  v      v      v     ^        ^      v
|-----------0------0--|----------0------0------0--|--0--------0------0--|
|--1--------1------1--|--1----1--0 h 1--0 h 1--1--|--1--------1------1--|
|--2--------2------2--|--2----2--0 h 2--0 h 2--0--|--2--------2------2--|
|--2--------2------2--|--2----2--2------2------2--|--2--------2------2--|
|--0--------0---------|--0----0--0------0------0--|--0--------0---------|
|---------------------|---------------------------|---------------------|

   ^    ^  v  ^    ^  v
|-------------0-------0--| |
|-------1--1--1-------1--| |
|--2----2--2--2----2--2--|*|
|--2-------2--2----2--2--|*| x 2
|--0-------0-------0-----| |
|------------------------| |

    C                       G6                      F7M
    ^          ^      v     ^  v      ^       v     ^        ^    ^  v
||-------------0---------|-----------------------|-----------0-------0--|
||--1----------1------0--|--0--0------3----------|--1--------1-------1--|
||--0----------0------0--|--0--0------0----2--2--|--2--------2----2--0--|
||--0 h 2------2------0--|--0--0------0-------3--|--3--------3----3--0--|
||--3----------3------0--|--2--2------2-------3--|--3----------------0--|
||-----------------------|--3---------3-------0--|--1-------------------|


   Am
   ^        ^      v     ^      v    v    v     ^        ^      v
|-----------0------0--|---------0----0----0--|--0--------0------0--|
|--1--------1------1--|--1------1----1----1--|--1--------1------1--|
|--2--------2------2--|--2------2----2----2--|--2--------2------2--|
|--2--------2------2--|--2------2----2----2--|--2--------2------2--|
|--0--------0---------|--0------0------------|--0------------------|
|---------------------|----------------------|---------------------|

                            Em
   ^      ^  v  ^  ^  v     ^        ^      v            v  ^    ^  v
|---------0-----0-----0--|-----------0------0--|-(0)--------0----------|
|---------1--1--1--1--1--|--0--------0------0--|-(0)-----0--0----------|
|--2------2--2--2--2--2--|--0--------0------0--|-(0)-----0--0----0-----|
|--2------2--2--2--2--2--|--2--------2------2--|-(2)-----2--2----2-----|
|--0---------0-----0-----|--2--------2---------|------------2----2--2--|
|------------------------|--0------------------|------------0-------0--|

   ^
|--0----------------|-(0)---------------||
|--0----------------|-(0)---------------||
|--0----------------|-(0)---------------||
|--2----------------|-(2)---------------||
|--2----------------|-(2)---------------||
|--0----------------|-(0)---------------||



================================================================================
Section 3 Lead: Guitars 2 & 3 w/ Heavy Distortion & Slider (Play once)
================================================================================

=========
Guitar 2:
=========

  1                       2
||-----------------------|--------------------------|
||--R--       -----------|-----------------------R--|
||--E--       --/12------|-(12)---------(12/14)--E--|
||--S--       -----------|-----------------------S--|
||--T--       -----------|-----------------------T--|
||-----------------------|--------------------------|

 3                             4
|-----------------------------|-----------------------|
|-----------------------------|--R--------------------|
|--10~~----------10--(10/12)--|--E--(7/9)-------------|
|-----------------------------|--S--------------------|
|-----------------------------|--T--------------------|
|-----------------------------|-----------------------|

 5                             6                    7
|-----------------------------|--------------------|----------------------|
|-----------------------------|--------------------|----------------------|
|-(9)-----(9 /10\ 9)----(10 \ | 9)~~---------------|-(9)-------------  \--|
|-----------------------------|--------------------|----------------------|
|-----------------------------|--------------------|----------------------|
|-----------------------------|--------------------|----------------------|

 8                       9
|-----------------------|--------------------------|
|--R--       -----------|-----------------------R--|
|--E--       --/12------|-(12)---------(12/14)--E--|
|--S--       -----------|-----------------------S--|
|--T-        -----------|-----------------------T--|
|-----------------------|--------------------------|

 10                            11
|-----------------------------|-----------------------|
|-----------------------------|--R--------------------|
|-(8/10)~~-----------(10/12)--|--E--(7/9)-------------|
|-----------------------------|--S--------------------|
|-----------------------------|--T--------------------|
|-----------------------------|-----------------------|

 12                            13                   14
|-----------------------------|--------------------|----------------------|
|-----------R-----------------|--------------------|----------------------|
|-(9)-----9-E-(10\9)----(12 \ | 9)~~---------------|--(9)------------  \--|
|-----------S-----------------|--------------------|----------------------|
|-----------T-----------------|--------------------|----------------------|
|-----------------------------|--------------------|----------------------|

 15                       16                       17
|------------------------|------------------------|----------------------|
|--R--       ------------|------------R-----------|------------R---------|
|--E--       --14-----  \|  12--------E--14---  \ |  10--------E--9------|
|--S--       ------------|------------S-----------|------------S---------|
|--T--       ------------|------------T-----------|------------T---------|
|------------------------|------------------------|----------------------|

 18                         19
|--------------------------|---------------------------|
|--------------------------|--------------------R------|
|-(9)-- \ (2/5)~~----------|-(5)-----(5 /7\ 5)--E--9 \ |
|--------------------------|--------------------S------|
|--------------------------|--------------------T------|
|--------------------------|---------------------------|

 20                   21                    22
|--------------------|---------------------|-------------------|
|--------------------|---------------------|-------------------|
|  5~~---------------|--(5)----------5--  /|  9----------------|
|--------------------|---------------------|-------------------|
|--------------------|---------------------|-------------------|
|--------------------|---------------------|-------------------|

 23                    24                   25
|---------------7  /  |  12----------------|--(12)----  \---------||
|---------------------|--------------------|----------------R-   -||
|-(9)-----------------|--------------------|----------------E-   -||
|---------------------|--------------------|----------------S-   -||
|---------------------|--------------------|----------------T-   -||
|---------------------|--------------------|----------------------||



=========
Guitar 3: Rest for 14 bars before joining in
=========


  15                          16
||---------------------------|------------------------|
||--R--       ---------------|------------R-----------|
||--E--       --(16/17)---  \|  16--------E--17   \   |
||--S--       ---------------|------------S-----------|
||--T--       ---------------|------------T-----------|
||---------------------------|------------------------|

 17                      18
|-----------------------|--------------------------|
|------------R----------|--------------------------|
|  14--------E--12------|-(12) \ (7 /9)~~----------|
|------------S----------|--------------------------|
|------------T----------|--------------------------|
|-----------------------|--------------------------|

 19                            20                   21
|-----------------------------|--------------------|---------------------|
|---------------------R-------|--------------------|---------------------|
|-(9)-----(9 /10\ 9)--E--12 \ |  9~~---------------|--(9)------9--   \   |
|---------------------S-------|--------------------|---------------------|
|---------------------T-------|--------------------|---------------------|
|-----------------------------|--------------------|---------------------|

 22                  23                    24
|-------------------|---------------------|--------------------|
|-------------------|---------------5  /  |  12----------------|
|  4----------------|--(4)----------------|--------------------|
|-------------------|---------------------|--------------------|
|-------------------|---------------------|--------------------|
|-------------------|---------------------|--------------------|

 25
|----------------------||
|--(12)----  \--R-    -||
|---------------E-    -||
|---------------S-    -||
|---------------T-    -||
|----------------------||



================================================================================
Section 4.1: Acoustic Guitar (Play once)
================================================================================


    Asus2                                            Em/C
    ^        ^    ^  v          ^  v  ^  v  ^  v     ^        ^    ^  v
||-----------0-------0--|-(0)------0-----0-----0--|----------------------|
||--0--------0-------0--|-(0)------0--0--0--0--0--|--0--------0----0--0--|
||--2--------2----2--2--|-(2)---2--2--2--0--2--0--|--0--------0----0--0--|
||--2--------2----2--2--|-(2)---2--2--2--2--2--2--|--2--------2----2--2--|
||--0--------0----0-----|-(0)---0--0--0--0--0--0--|--3--------3----3-----|
||----------------------|-------------------------|----------------------|

                                            
                            Em             Rake chord
   ^    ^  v  ^    ^  v     ^    ^         ^
|----------0-------------|--0-------------------|
|--0-------0--0-------0--|--0-------------------|
|--0----0--0--0----0--0--|--0----0------------0-|
|--2----2--2--2----2--2--|--2----2-----------2--|
|--3----3-----3----3-----|--2----2----------2---|
|------------------------|--0----0---------0----|


   ^      v  ^    ^  v     ^    ^    ^    ^  v     ^      v  ^      v
|--0-----------------0--|--0-----------------0--|-------------------0--|
|--0------0----------0--|--0--------------0--0--|--0---------0------0--|
|-(0)-----0--0----0--0--|--0----0---------0--0--|--0------0--0------2--|
|-(2)-----2--2----2--2--|--2----2----2----2--2--|--2------2--2------0--|
|-(2)-----2--2----2--2--|--2----2----2----2-----|--2------2--2------0--|
|-(0)--------0----0-----|--0----0----0----0-----|--0------0--0---------|


   Asus2                                              Em/C
   ^     ^    ^    ^  v          ^  v  ^  v  ^  v     ^        ^    ^  v
|-------------0-------0--|-(0)------0-----0-----0--|----------------------|
|--0----------0-------0--|-(0)------0--0--0--0--0--|--0--------0----0--0--|
|--2-----2----2----2--2--|-(2)---2--2--2--0--2--0--|--0--------0----0--0--|
|--2-----2----2----2--2--|-(2)---2--2--2--2--2--2--|--2--------2----2--2--|
|--0-----0----0----0-----|-------0--0--0--0--0--0--|--3--------3----3-----|
|------------------------|-------------------------|----------------------|


                           Em
        ^    ^    ^  v     ^    ^    ^    ^  v     ^    ^  v  ^    ^  v
|--------------------0--|--0--------------------|----------0-------------||
|-(0)---0----0-------0--|--0---------0----------|--0-------0-------0--0--||
|-(0)---0----0----0--0--|--0---------0----0--0--|--0----0--0--0----0--0--||
|-(2)---2----2----2--2--|--2----2----2----2--2--|--2----2--2--2----2--2--||
|-(3)---3----3----3--3--|--2----2----2----2--2--|--2----2-----2----2--2--||
|-----------------------|--0----0----0----0-----|--0----0-----0----0--0--||



================================================================================
Section 4.2: Guitar 4 w/ Heavy Distortion (Play once)
================================================================================


||---------------------|-------------------|---------------------|
||------------------0--|--(0)--------------|------------------0--|
||--2------------------|--(2)--------------|--5------------------|
||--2------------------|--(2)--------------|--5------------------|
||--0------------------|--(0)--------------|--3------------------|
||---------------------|-------------------|---------------------|


|-------------------|-------------------|-------------------|
|--(0)--------------|-------------------|--0----------------|
|--(5)--------------|--0----------------|--0----------------|
|--(5)--------------|--2----------------|--2----------------|
|--(3)--------------|--2----------------|--2----------------|
|-------------------|--0----------------|--0----------------|


|-------------------|-------------------|---------------------|
|-(0)---------------|--0----------------|------------------0--|
|-(0)---------------|--0----------------|--2------------------|
|--2----------------|--2----------------|--2------------------|
|--2----------------|--2----------------|--0------------------|
|--0----------------|--0----------------|---------------------|


|-------------------|---------------------|-------------------|
|--(0)--------------|------------------0--|--(0)--------------|
|--(2)--------------|--5------------------|--(5)--------------|
|--(2)--------------|--5------------------|--(5)--------------|
|--(0)--------------|--3------------------|--(3)--------------|
|-------------------|---------------------|-------------------|


|-------------------|-------------------||
|-------------------|-------------------||
|--0----------------|--(0)--------------||
|--2----------------|--(2)--------------||
|--2----------------|--(2)--------------||
|--0----------------|--(0)--------------||



================================================================================
Outro 1.1: Acoustic Guitar (Play once)
================================================================================

    C                   Em
    ^                   ^        ^           ^
||-------------------|--0-----------------|-(0)---------------|
||--1----------------|--0-----------------|-(0)---------------|
||--0----------------|--0--------0--------|--0----------------|
||--2----------------|--2--------2--------|--2----------------|
||--3----------------|--2--------2--------|--2----------------|
||-------------------|--0-----------------|-(0)---------------|


                       C                   Em
                       ^                   ^
|--(0)--------------|-------------------|--0----------------||
|--(0)--------------|--1----------------|--0----------------||
|--(0)--------------|--0----------------|--0----------------||
|--(2)--------------|--2----------------|--2----------------||
|--(2)--------------|--3----------------|--2----------------||
|--(0)--------------|-------------------|--0----------------||



Allow the last notes to ring out



================================================================================
Outro 1.2: Guitar 4 (Play once)
================================================================================


||-------------------|-------------------||
||-------------------|-------------------||
||-------------------|-------------------||
||--5----------------|-------------------||
||--3----------------|--2----------------||
||-------------------|--0----------------||



Allow the last notes to ring out



================================================================================
End
================================================================================


Tab summary:        Section 1 x 5
                    Section 2 x 1
                    Section 1 x 3
                    Section 2 x 1
                    Section 3 x 3 + Section 3 Lead x 1
                    Section 4 x 1
                    Outro x 1
                    
                    END
comments
We did not receive enough feedback on this tab! Please rate:
print report bad tab
1 2 3 4 5
I want to post or [tab]
guest
You may want to rate the tab now too:
select rating
Please do not post tabs as comments. Select "correction" instead!