Oops, an error
Loading. Please wait.

666 Tab

910 views 6 this week
no commentswrite comment
1 2 3 4 5
please rate
Autoscroll
+/-
esc
set tempo
stop
Contributor
Hey! There's an official Ultimate Guitar app which is ideal
for learning songs when you're away from computer. Get the app
WARNING: You are trying to view
                                    content from Ultimate-Guitar.com
                                    in an unauthorized application,
                                    which is prohibited.

                                    Please use an official Ultimate
                                    Guitar Tabs application for iPhone,
                                    iPad or Android to access legitimate
                                    chords, guitar, bass, and drum tabs
                                    from Ultimate-Guitar.com database.

                                    Type "ultimate guitar tabs" in Apple
                                    App Store's or Android Market's
                                    search to find the application.
666

anvil

TRANSCRIBED BY RUDY GUZMAN

guzman_84@hotmail.com

                 x2                                    
e:----------------|
B:----------------|
G:----------------|
D:----------12--9-|
A:-7-7-7-7--10--7-|
E:-0-0-0-0--0---0-|

e:-------|
B:-------|
G:-------|
D:-7-8-9-|
A:-5-6-7-|
E:-------|

e:---------------------------------------------------------------------|
B:---------------------------------------------------------------------|
G:----------------------12-12--------------------------------------9-7-|
D:-----------12-9-------12-12-------12-9-------10-------12-9-------7-5-|
A:-----------10-7-------10-10-------10-7-------8--------10-7-----------|
E:-0-0-0-0-0------0-0-0-------0-0-0------0-0-0----0-0-0------0-0-0-----|

e:--------------------|
B:--------------------|
G:--------------------|
D:-------12-9---7-8-9-|
A:-------10-7---5-6-7-|
E:-0-0-0------0-------|


e:-----------------------------------------------------------------|
B:-----------------------------------------------------------------|
G:------------------12-12--------------------------------------9-7-|
D:-------12-9-------12-12-------12-9-------10-------12-9-------7-5-|
A:-------10-7-------10-10-------10-7-------8--------10-7-----------|
E:-0-0-0------0-0-0-------0-0-0------0-0-0----0-0-0------0-0-0-----|

e:--------------------|
B:--------------------|
G:--------------------|
D:-------12-9---7-8-9-|
A:-------10-7---5-6-7-|
E:-0-0-0------0-------|

e:-----------------------------------------------------------------|
B:-----------------------------------------------------------------|
G:------------------12-12--------------------------------------9-7-|
D:-------12-9-------12-12-------12-9-------10-------12-9-------7-5-|
A:-------10-7-------10-10-------10-7-------8--------10-7-----------|
E:-0-0-0------0-0-0-------0-0-0------0-0-0----0-0-0------0-0-0-----|

e:--------------------|
B:--------------------|
G:--------------------|
D:-------12-9---7-8-9-|
A:-------10-7---5-6-7-|
E:-0-0-0------0-------|


e:-----------12---------12-------------------------------------------|
B:-15bf-15bf----15b-15f----15p12-15p12-------------------------------|
G:-------------------------------------14p12-------------------------|
D:-------------------------------------------14~~--16p14-17p14-18p14-|
A:-------------------------------------------------------------------|
E:-------------------------------------------------------------------|

e:------------------------------------------------|
B:------12-12-12-12-15p12-12-12-12-17p12-15bf~~~~-|
G:-14b--------------------------------------------|
D:------------------------------------------------|
A:------------------------------------------------|
E:------------------------------------------------|

  verse
e:---------------------------------------------|
B:---------------------------------------------|
G:---------------------------------------------|
D:------------------------------7-7-7-7-7-7/12-|
A:------------------------------5-5-5-5-5-5/10-|
E:-0-0-0-0-0-0-0-0-0-0-0-0-0-0-----------------|

                                                  x2
e:--------------------------------------------------|
B:--------------------------------------------------|
G:--------------------------------------------------|
D:--------12--------10---------------7-7-7-7-7-7/12-|
A:--------10--------8----------------5-5-5-5-5-5/10-|
E:-0-0-0-----0-0-0-----0-0-0-0-0-0-0----------------|

e:-----------------------------------------------------------------|
B:-----------------------------------------------------------------|
G:------------------12-12--------------------------------------9-7-|
D:-------12-9-------12-12-------12-9-------10-------12-9-------7-5-|
A:-------10-7-------10-10-------10-7-------8--------10-7-----------|
E:-0-0-0------0-0-0-------0-0-0------0-0-0----0-0-0------0-0-0-----|

e:--------------------|
B:--------------------|
G:--------------------|
D:-------12-9-------7-|
A:-------10-7-------5-|
E:-0-0-0------0-0-0---|

e:----------------------------------|
B:----------------------------------|
G:-12-12-12-12-12-12-12-12-12-12-12-|
D:-12-12-12-12-12-12-12-12-12-12-12-|
A:-10-10-10-10-10-10-10-10-10-10-10-|
E:----------------------------------|

e:---------------------------------------------|
B:---------------------------------------------|
G:------------------12-12----------------------|
D:-------12-9-------12-12-------12-9-------10--|
A:-------10-7-------10-10-------10-7-------8---|
E:-0-0-0------0-0-0-------0-0-0------0-0-0-----|

e:----------------------------------|
B:----------------------------------|
G:-12-12-12-12-12-12-12-12-12-12-12-|
D:-12-12-12-12-12-12-12-12-12-12-12-|
A:-10-10-10-10-10-10-10-10-10-10-10-|
E:----------------------------------|

e:-----------------------------------------------------------------|
B:-----------------------------------------------------------------|
G:------------------12-12--------------------------------------9-7-|
D:-------12-9-------12-12-------12-9-------10-------12-9-------7-5-|
A:-------10-7-------10-10-------10-7-------8--------10-7-----------|
E:-0-0-0------0-0-0-------0-0-0------0-0-0----0-0-0------0-0-0-----|


e:------------------------|
B:------------------------|
G:------------------------|
D:-------12-9-------7/8-9-|
A:-------10-7-------5/6-7-|
E:-0-0-0------0-0-0-------|

e:-----------------------------------|
B:-----------------------------------|
G:-6-6-6-6-6-6-6-6-6-6-6--6--3--6--3-|
D:-6-6-6-6-6-6-6-6-6-6-6--6--3--6--3-|
A:-4-4-4-4-4-4-4-4-4-4-4--4--1--4--1-|
E:-----------------------------------|


e:-----------------------------------------------------------------|
B:-----------------------------------------------------------------|
G:------------------12-12--------------------------------------9-7-|
D:-------12-9-------12-12-------12-9-------10-------12-9-------7-5-|
A:-------10-7-------10-10-------10-7-------8--------10-7-----------|
E:-0-0-0------0-0-0-------0-0-0------0-0-0----0-0-0------0-0-0-----|

e:------------------------|
B:------------------------|
G:------------------------|
D:-------12-9-------7/8-9-|
A:-------10-7-------5/6-7-|
E:-0-0-0------0-0-0-------|

       six    uh six    whoaaa six
e:---------------------------------------------|
B:---------------------------------------------|
G:---------------------------------------------|
D:-12------11--------10-------------9-9-9-12-9-|
A:-10------9---------8--------------7-7-7-10-7-|
E:---------------------------------------------|

       six    six     
e:--------------------------------|
B:--------------------------------|
G:--------------------------------|
D:-12------11--------10-----------|
A:-10------9---------8------------|
E:--------------------------------|

e:-----------12---------12-------------------------------------------|
B:-15bf-15bf----15b-15f----15p12-15p12-------------------------------|
G:-------------------------------------14p12-------------------------|
D:-------------------------------------------14~~--16p14-17p14-18p14-|
A:-------------------------------------------------------------------|
E:-------------------------------------------------------------------|

e:------------------------------------------------|
B:------12-12-12-12-15p12-12-12-12-17p12-15bf~~~~-|
G:-14b--------------------------------------------|
D:------------------------------------------------|
A:------------------------------------------------|
E:------------------------------------------------|

  verse
e:---------------------------------------------|
B:---------------------------------------------|
G:---------------------------------------------|
D:------------------------------7-7-7-7-7-7/12-|
A:------------------------------5-5-5-5-5-5/10-|
E:-0-0-0-0-0-0-0-0-0-0-0-0-0-0-----------------|

                                                  x2
e:--------------------------------------------------|
B:--------------------------------------------------|
G:--------------------------------------------------|
D:--------12--------10---------------7-7-7-7-7-7/12-|
A:--------10--------8----------------5-5-5-5-5-5/10-|
E:-0-0-0-----0-0-0-----0-0-0-0-0-0-0----------------|

e:-----------------------------------------------------------------|
B:-----------------------------------------------------------------|
G:------------------12-12--------------------------------------9-7-|
D:-------12-9-------12-12-------12-9-------10-------12-9-------7-5-|
A:-------10-7-------10-10-------10-7-------8--------10-7-----------|
E:-0-0-0------0-0-0-------0-0-0------0-0-0----0-0-0------0-0-0-----|

e:--------------------|
B:--------------------|
G:--------------------|
D:-------12-9-------7-|
A:-------10-7-------5-|
E:-0-0-0------0-0-0---|


e:----------------------------------|
B:----------------------------------|
G:-12-12-12-12-12-12-12-12-12-12-12-|
D:-12-12-12-12-12-12-12-12-12-12-12-|
A:-10-10-10-10-10-10-10-10-10-10-10-|
E:----------------------------------|

e:---------------------------------------------|
B:---------------------------------------------|
G:------------------12-12----------------------|
D:-------12-9-------12-12-------12-9-------10--|
A:-------10-7-------10-10-------10-7-------8---|
E:-0-0-0------0-0-0-------0-0-0------0-0-0-----|

e:----------------------------------|
B:----------------------------------|
G:-12-12-12-12-12-12-12-12-12-12-12-|
D:-12-12-12-12-12-12-12-12-12-12-12-|
A:-10-10-10-10-10-10-10-10-10-10-10-|
E:----------------------------------|

e:-----------------------------------------------------------------|
B:-----------------------------------------------------------------|
G:------------------12-12--------------------------------------9-7-|
D:-------12-9-------12-12-------12-9-------10-------12-9-------7-5-|
A:-------10-7-------10-10-------10-7-------8--------10-7-----------|
E:-0-0-0------0-0-0-------0-0-0------0-0-0----0-0-0------0-0-0-----|

e:--------------------|
B:--------------------|
G:--------------------|
D:-------12-9-------7-|
A:-------10-7-------5-|
E:-0-0-0------0-0-0---|

e:-----------------------------------|
B:-----------------------------------|
G:-6-6-6-6-6-6-6-6-6-6-6--6--3--6--3-|
D:-6-6-6-6-6-6-6-6-6-6-6--6--3--6--3-|
A:-4-4-4-4-4-4-4-4-4-4-4--4--1--4--1-|
E:-----------------------------------|

e:-----------------------------------------------------------------|
B:-----------------------------------------------------------------|
G:------------------12-12--------------------------------------9-7-|
D:-------12-9-------12-12-------12-9-------10-------12-9-------7-5-|
A:-------10-7-------10-10-------10-7-------8--------10-7-----------|
E:-0-0-0------0-0-0-------0-0-0------0-0-0----0-0-0------0-0-0-----|

e:------------------------|
B:------------------------|
G:------------------------|
D:-------12-9-------7/8-9-|
A:-------10-7-------5/6-7-|
E:-0-0-0------0-0-0-------|

       six    six          six
e:-------------------------------------|
B:-------------------------------------|
G:-------------------------------------|
D:-12------11--------10-------------9--|
A:-10------9---------8--------------7--|
E:-------------------------------------|

                 pick slide
e:------------------------------------------------------------|
B:------------------------------------------------------------|
G:------------------------------------------------------------|
D:-9--9-------------------------------------------------------|
A:-7--7---------x\--------------------------------------------|
E:--------------x\--------------------------------------------|

  solo
e:-----------------------------------------------------------------------------------|
B:------------------------------------------------5b-5b--------5b-5b-------5bf-------|
G:-2b-2b--2bf--2b-2p0-----------0ah--2ahp0--------7b-7b-7b~~---7b-7b-7b~~--7bf--7~~~-|
D:--------------------2~~--0-0-------------2-5-2-------------------------------------|
A:-----------------------------------------------------------------------------------|
E:-----------------------------------------------------------------------------------|

                      ---------
e:-------------------/------------------------7-7-7-7-7-7-10p7--7-7-7-10p7--7-7-7-10p7-|
B:-7b~~~~-------7bf-/-7-7-7-7-7--------------------------------------------------------|
G:-9b~~~~--9p7--9bf/--9-9-9-9-9--10p7---9~~~-------------------------------------------|
D:------------------------------------9------------------------------------------------|
A:-------------------------------------------------------------------------------------|
E:-------------------------------------------------------------------------------------|

e:-7-7-7-7-7--------------------------------------------------------------|
B:-----------10bf-10b-10b~~~~-10b--10--8h10p8-7h8p7--8h10p8-7h8p7--8h10p8-|
G:------------------------------------------------------------------------|
D:------------------------------------------------------------------------|
A:------------------------------------------------------------------------|
E:------------------------------------------------------------------------|

e:-----------------------------------------------------------------12-15-12----12-15-12-|
B:-7h8p7--------------------------------12-15-12-15-12-15-12-15bf-----------15----------|
G:-------8b-8b--8-11p8-13p8-11p8---14bf-------------------------------------------------|
D:--------------------------------------------------------------------------------------|
A:--------------------------------------------------------------------------------------|
E:--------------------------------------------------------------------------------------|

e:----12-15-12----12-15-12----12-15-12----------|
B:-15----------15----------15----------15-15bf--|
G:----------------------------------------------|
D:----------------------------------------------|
A:----------------------------------------------|
E:----------------------------------------------|

e:-12-15p12----12-------------------------------------|
B:----------15----15p12-15p12----12-------------------|
G:----------------------------14----14-12-14p12----12-|
D:----------------------------------------------14----|
A:----------------------------------------------------|
E:----------------------------------------------------|

e:--------------------------------------------|
B:-8-11p8----8--------------------------------|
G:--------10----10p8-10p8----8----------------|
D:------------------------10---10-8-10p8----8-|
A:---------------------------------------10---|
E:--------------------------------------------|

e:-------------------------------------|
B:-------------------------------------|
G:-3-5p3---3---------------------------|
D:-------5----5p3-5p3---3--------------|
A:--------------------5---5--3-5p3-----|
E:---------------------------------6-3-|

   bar           bar
e:----------------------------------------------------------|
B:-0-------------0------------------------------------------|
G:-0------x\-----0------------------------------------------|
D:-0------x\-----0------------------------------------------|
A:----------------------------------------------------------|
E:----------------------------------------------------------|


e:-----------12---------12-------------------------------------------|
B:-15bf-15bf----15b-15f----15p12-15p12-------------------------------|
G:-------------------------------------14p12-------------------------|
D:-------------------------------------------14~~--16p14-17p14-18p14-|
A:-------------------------------------------------------------------|
E:-------------------------------------------------------------------|

e:------------------------------------------------|
B:------12-12-12-12-15p12-12-12-12-17p12-15bf~~~~-|
G:-14b--------------------------------------------|
D:------------------------------------------------|
A:------------------------------------------------|
E:------------------------------------------------|

  verse
e:---------------------------------------------|
B:---------------------------------------------|
G:---------------------------------------------|
D:------------------------------7-7-7-7-7-7/12-|
A:------------------------------5-5-5-5-5-5/10-|
E:-0-0-0-0-0-0-0-0-0-0-0-0-0-0-----------------|

                                                  x3
e:--------------------------------------------------|
B:--------------------------------------------------|
G:--------------------------------------------------|
D:--------12--------10---------------7-7-7-7-7-7/12-|
A:--------10--------8----------------5-5-5-5-5-5/10-|
E:-0-0-0-----0-0-0-----0-0-0-0-0-0-0----------------|

e:-----------------------------------------------------------------|
B:-----------------------------------------------------------------|
G:------------------12-12--------------------------------------9-7-|
D:-------12-9-------12-12-------12-9-------10-------12-9-------7-5-|
A:-------10-7-------10-10-------10-7-------8--------10-7-----------|
E:-0-0-0------0-0-0-------0-0-0------0-0-0----0-0-0------0-0-0-----|

e:--------------------|
B:--------------------|
G:--------------------|
D:-------12-9-------7-|
A:-------10-7-------5-|
E:-0-0-0------0-0-0---|

  siiiiiiiiiixxx
e:----------------------------------|
B:----------------------------------|
G:-12-12-12-12-12-12-12-12-12-12-12-|
D:-12-12-12-12-12-12-12-12-12-12-12-|
A:-10-10-10-10-10-10-10-10-10-10-10-|
E:----------------------------------|

    siiiiiiiiiiix      siiiiiiiiiix           6  6  6  6  6  6
e:-------------------------------------------------------------|
B:-------------------------------------------------------------|
G:-11-11-11-11-11-11-11-10-10-10-10-10-10-10--9--9--9--9--9--9-|
D:-11-11-11-11-11-11-11-10-10-10-10-10-10-10--9--9--9--9--9--9-|
A:-9--9--9--9--9--9--9--8--8--8--8--8--8--8---7--7--7--7--7--7-|
E:-------------------------------------------------------------|

  siiiiiiiiiixxx
e:----------------------------------|
B:----------------------------------|
G:-12-12-12-12-12-12-12-12-12-12-12-|
D:-12-12-12-12-12-12-12-12-12-12-12-|
A:-10-10-10-10-10-10-10-10-10-10-10-|
E:----------------------------------|

    siiiiiiiiiiix      siiiiiiiiiix           6  6  6  
e:-----------------------------------------------------|
B:-----------------------------------------------------|
G:-11-11-11-11-11-11-11-10-10-10-10-10-10-10--9--9--9--|
D:-11-11-11-11-11-11-11-10-10-10-10-10-10-10--9--9--9--|
A:-9--9--9--9--9--9--9--8--8--8--8--8--8--8---7--7--7--|
E:-----------------------------------------------------|



hillo son mex

12/08/11





March of the Crabs

Anvil

guzman_84@hotmail.com



   gt1
pm . .   .  . . .   . . .  . . . .                                             
e:--------------------------------|
B:--------------------------------|
G:--------------------------------|
D:--------------------------------|
A:--------------------------------|
E:-0-10-12--0-8-10--0-7-8--0-8-10-|
   gt2
e:------------------------------0AH-|
B:-----------------0AH--------------|
G:------0AH-------------------------|
D:----------------------------------|
A:----------------------------------|
E:----------------------------------|


e:----------|
B:----------|
G:-9--------|
D:-9--------|
A:-7--------|
E:-0--------|

     pm....  .....  .....     .....  ..... ......     .....     .....
e:-------------------------------------------------------------------------------------------|
B:-------------------------------------------------------------------------------------------|
G:-9-----------------------9-----------------------9---------9---------9-9-9-9-9-9-9-9-9-9-9-|
D:-9-----------------------9-----------------------9---------9---------9-9-9-9-9-9-9-9-9-9-9-|
A:-7-----------------------7-----------------------7---------7---------7-7-7-7-7-7-7-7-7-7-7-|
E:-0--0-0-0--0-0-0--0-0-0--0--0-0-0--0-0-0--0-0-0--0--0-0-0--0--0-0-0------------------------|

e:-------------------------|
B:-------------------------|
G:-------------------------|
D:-------------------------|
A:---------------2-3-2-3-5-|
E:-0-2-3--5-3-5------------|

pm .  . . . . .  .  . . . . .
e:-----------------------------------------------------|
B:-----------------------------------------------------|
G:-----------------------------------------------------|
D:-----------------------------------------------------|
A:-----------------------------5-3-2-3-2---2-----------|
E:-0--0-0-0-0-0--0--0-0-0-0-0------------5---5-3-5-3-2-|

pm .  . . . . .  .  . . . . .
e:-----------------------------------------------------|
B:-----------------------------------------------------|
G:-----------------------------------------------------|
D:-----------------------------------------------------|
A:-------------------------------------------2-3-2-3-5-|
E:-0--0-0-0-0-0--0--0-0-0-0-0--0-2-3--5-3-5------------|

pm .  . . . . .  .  . . . . .
e:-------------------------------------------------|
B:-------------------------------------------------|
G:-------------------------------------------------|
D:-------------------------------------------------|
A:-----------------------------5-3-2-3-2---2-------|
E:-0--0-0-0-0-0--0--0-0-0-0-0------------5---5-3-2-|


e:---------------------------------------------------------|
B:---------------------------------------------------------|
G:-9-9--5-5--7-7--4-4---9-9--5-5--7-----9-9--5-5--7-7--4-4-|
D:-9-9--5-5--7-7--4-4---9-9--5-5--7-----9-9--5-5--7-7--4-4-|
A:-7-7--3-3--5-5--2-2---7-7--3-3--5-----7-7--3-3--5-5--2-2-|
E:---------------------------------------------------------|

e:------------------------------------------------------------|
B:------------------------------------------------------------|
G:------------------------------------------------------------|
D:------------------------------------------------------------|
A:-3-3-3-3-3-3-3--5-5-5-5-5-5-5-5----------------2-3-2-3-5----|
E:---------------------------------0-2-3--5-3-5---------------|


e:--------------------------------------------------|
B:--------------------------------------------------|
G:-2b--2b-2b--2b-2b--2b-2b--------------------------|
D:--------------------------------------------------|
A:--------------------------5-3-2-3-2---2-----------|
E:------------------------------------5---5-3-5-3-2-|


e:-----------------------------------------------------------------|
B:-----5-8p5-5-----5-8p5-7p5---5-----------------------------------|
G:-7b-----------7b-----------7---7--7-7b---------------------------|
D:-----------------------------------------------------------------|
A:-------------------------------------------------------2-3-2-3-5-|
E:-----------------------------------------0-2-3--5-3-5------------|

e:---------12h15p12----12---------------------------------------------------------------|
B:-15b-15b----------15----15-15p12-15p12----12------------------------------------------|
G:---------------------------------------14----14-12h14p12-12---------------------------|
D:------------------------------------------------------------14------------------------|
A:------------------------------------------------------------------5-3-2-3-2---2-------|
E:----------------------------------------------------------------------------5---5-3-2-|

e:---------------------------------------------------------|
B:---------------------------------------------------------|
G:-9bf-9b-9b--9b-9b-9p7--9b~~~~----------------------------|
D:---------------------------------------------------------|
A:-----------------------------------------------2-3-2-3-5-|
E:---------------------------------0-2-3--5-3-5------------|

e:-12h15p12----12-15p12-15p12----12-15p12-15p12----12-15p12-15p12-------------------------------|
B:----------15----------------15----------------15-----------------15b-15b----------------------|
G:----------------------------------------------------------------------------------------------|
D:----------------------------------------------------------------------------------------------|
A:--------------------------------------------------------------------------5-3-2-3-2---2-------|
E:------------------------------------------------------------------------------------5---5-3-2-|

e:-------------------------------------------------|
B:-------------------------------------------------|
G:-2b--2b-2b--2b-2b--2p0---------------------------|
D:-----------------------2~~~----------------------|
A:-------------------------------------------------|
E:-------------------------------------------------|

  gt1
e:---------------------------------------------------------|
B:---------------------------------------------------------|
G:-9-9--5-5--7-7--4-4---9-9--5-5--7-----9-9--5-5--7-7--4-4-|
D:-9-9--5-5--7-7--4-4---9-9--5-5--7-----9-9--5-5--7-7--4-4-|
A:-7-7--3-3--5-5--2-2---7-7--3-3--5-----7-7--3-3--5-5--2-2-|
E:---------------------------------------------------------|
  gt2
e:---------------------------------------------------------|
B:---------------------------------------------------------|
G:-9-9--5-5--7-7--4-4---9-9--5-5--7-----9-9--5-5--7-7--4-4-|
D:-x-x--x-x--x-x--x-x---x-x--x-x--x-----x-x--x-x--x-x--x-x-|
A:-7-7--3-3--5-5--2-2---7-7--3-3--5-----7-7--3-3--5-5--2-2-|
E:---------------------------------------------------------|

e:--------------------------------|
B:--------------------------------|
G:-5-5-5-5-5-5-5--7-7-7-7-7-7-7-7-|
D:-x-x-x-x-x-x-x--x-x-x-x-x-x-x-x-|
A:-3-3-3-3-3-3-3--5-5-5-5-5-5-5-5-|
E:--------------------------------|

   
pm . .   .  . . .   . . .  . . . .                                             
e:--------------------------------|
B:--------------------------------|
G:--------------------------------|
D:--------------------------------|
A:--------------------------------|
E:-0-10-12--0-8-10--0-7-8--0-8-10-|

e:----------------------------------------|
B:----------------------------------------|
G:----------------------------------------|
D:-9--------------------------------------|
A:-9----------------------------2-3-2-3-5-|
E:-7---------------0-2-3--5-3-5-----------|


pm .  . . . . .  .  . . . . .
e:-----------------------------------------------------|
B:-----------------------------------------------------|
G:-----------------------------------------------------|
D:-----------------------------------------------------|
A:-----------------------------5-3-2-3-2---2-----------|
E:-0--0-0-0-0-0--0--0-0-0-0-0------------5---5-3-5-3-2-|

pm .  . . . . .  .  . . . . .
e:-----------------------------------------------------|
B:-----------------------------------------------------|
G:-----------------------------------------------------|
D:-----------------------------------------------------|
A:-------------------------------------------2-3-2-3-5-|
E:-0--0-0-0-0-0--0--0-0-0-0-0--0-2-3--5-3-5------------|

pm .  . . . . .  .  . . . . .
e:-------------------------------------------------|
B:-------------------------------------------------|
G:-------------------------------------------------|
D:-------------------------------------------------|
A:-----------------------------5-3-2-3-2---2-------|
E:-0--0-0-0-0-0--0--0-0-0-0-0------------5---5-3-2-|

pm .  . . . . .  .  . . . . .
e:-----------------------------|
B:-----------------------------|
G:-----------------------------|
D:-----------------------------|
A:-----------------------------|
E:-0--0-0-0-0-0--0--0-0-0-0-0--|

e:---------------------------------------------------------|
B:---------------------------------------------------------|
G:-9-9--5-5--7-7--4-4---9-9--5-5--7-----9-9--5-5--7-7--4-4-|
D:-9-9--5-5--7-7--4-4---9-9--5-5--7-----9-9--5-5--7-7--4-4-|
A:-7-7--3-3--5-5--2-2---7-7--3-3--5-----7-7--3-3--5-5--2-2-|
E:---------------------------------------------------------|

e:--------------------------------|
B:--------------------------------|
G:--------------------------------|
D:--------------------------------|
A:-3-3-3-3-3-3-3--5-5-5-5-5-5-5-5-|
E:--------------------------------|

     pm....  .....  .....     .....  ..... ......     .....     .....
e:--------------------------------------------------------------------|
B:--------------------------------------------------------------------|
G:-9-----------------------9-----------------------9---------9--------|
D:-9-----------------------9-----------------------9---------9--------|
A:-7-----------------------7-----------------------7---------7--------|
E:-0--0-0-0--0-0-0--0-0-0--0--0-0-0--0-0-0--0-0-0--0--0-0-0--0--0-0-0-|

e:-----------------------|
B:-----------------------|
G:-9-9-9-9-9-9-9-9-9-9-9-|
D:-9-9-9-9-9-9-9-9-9-9-9-|
A:-7-7-7-7-7-7-7-7-7-7-7-|
E:-----------------------|

  gt1                            x8
e:-0-10-12--0-8-10--0-7-8--0-8-10-|
B:--------------------------------|
G:--------------------------------|
D:--------------------------------|
A:--------------------------------|
E:--------------------------------|

  gt2              x4
e:------------------|
B:------------------|
G:-9----7----5----7-|
D:-9----7----5----7-|
A:-7----5----3----5-|
E:------------------|

  gt1
e:-0-10-12--0-8-10--0-7-8--0-5-7--0-3-5--0-3-2--------|
B:----------------------------------------------------|
G:------------------------------------------------9---|
D:------------------------------------------------9---|
A:------------------------------------------------7---|
E:----------------------------------------------------|
  gt2
e:------------------------------------------------------|
B:------------------------------------------------------|
G:-9----7----5------------------------------------9-----|
D:-9----7----5-----9------7------5----------------9-----|
A:-7----5----3-----9------7------5----------------7-----|
E:-----------------7------5------3----------------------|





hillo son mex

7/08/11
comments
We did not receive enough feedback on this tab! Please rate:
print report bad tab
1 2 3 4 5
I want to post or [tab]
guest
You may want to rate the tab now too:
select rating
Please do not post tabs as comments. Select "correction" instead!