Oops, an error
Loading. Please wait.

End Of Me Tab

ver1
ver1

Whole song

Interactive

More versions @911Tabs.com
8,275 views 3 this week
no commentswrite comment
1 2 3 4 5
excellent!
x 5
Autoscroll
+/-
esc
set tempo
stop
Contributor
Difficulty
Tuning
intermediate
C G C F A D
WARNING: You are trying to view
                                    content from Ultimate-Guitar.com
                                    in an unauthorized application,
                                    which is prohibited.

                                    Please use an official Ultimate
                                    Guitar Tabs application for iPhone,
                                    iPad or Android to access legitimate
                                    chords, guitar, bass, and drum tabs
                                    from Ultimate-Guitar.com database.

                                    Type "ultimate guitar tabs" in Apple
                                    App Store's or Android Market's
                                    search to find the application.
End of Me (feat. Gavin Rossdale)
Apocalyptica
7th Symphony (2010)

End of Me: written by Eicca Toppinen, Paavo Lotjonen, Perttu Kivilaakso, 
Mikko Siren, and Gavin Rossdale

GTR I - Drop C Tuning "Gavin Rossdale" (d,A,F,C,G,C)
GTR II - Drop C Tuning "Fill" (d,A,F,C,G,C)
GTR III - Drop C Tuning "Fill" (d,A,F,C,G,C)

Intro

  GTR I
d|-------------------------------------------------|
A|-------------------------------------------------|
F|--7-----7--7--7--5--5--5--5--3--3--3--3--2--2--2-|
C|--7-----7--7--7--5--5--5--5--3--3--3--3--2--2--2-|
G|--5-----5--5--5--3--3--3--3--1--1--1--1--0--0--0-|
C|-------------------------------------------------|
 |
 |GTR II
d|-------------------------------------------------|
A|-------------------------------------------------|
F|-------------------------------------------------|
C|-12----12-12-12-10-10-10-10--8--8--8--8--7--7--7-|
G|-------------------------------------------------|
C|-------------------------------------------------|

  GTR I
d|-------------------------------------------------|
A|-------------------------------------------------|
F|-----7--7--7--7--5--5--5--5--3--3--3--3--2--2--2-|
C|-----7--7--7--7--5--5--5--5--3--3--3--3--2--2--2-|
G|-----5--5--5--5--3--3--3--3--1--1--1--1--0--0--0-|
C|-------------------------------------------------|
 |
 |GTR II
d|-------------------------------------------------|
A|-------------------------------------------------|
F|-------------------------------------------------|
C|----12-12-12-12-10-10-10-10--8--8--8--8--7--7--7-|
G|-------------------------------------------------|
C|-------------------------------------------------|

  GTR I
d|-------------------------------------------------|
A|-------------------------------------------------|
F|--7-----7--7--7--5--5--5--5--3--3--3--3--2--2--2-|
C|--7-----7--7--7--5--5--5--5--3--3--3--3--2--2--2-|
G|--5-----5--5--5--3--3--3--3--1--1--1--1--0--0--0-|
C|-------------------------------------------------|
 |
 |GTR II
d|-------------------------------------------------|
A|-------------------------------------------------|
F|-------------------------------------------------|
C|-12----12-12-12-10-10-10-10--8--8--8--8--7--7--7-|
G|-------------------------------------------------|
C|-------------------------------------------------|
 |
 |GTR III
d|-------------------------------------------------|
A|-------------------------------------------------|
F|-10----10-10-10--9--9--9--9--7--7--7--7--5--5--5-|
C|-------------------------------------------------|
G|-------------------------------------------------|
C|-------------------------------------------------|

  GTR I
d|-------------------------------------------------|
A|-------------------------------------------------|
F|-----7--7--7--7--5--5--5--5--3--3--3--3--2--2--2-|
C|-----7--7--7--7--5--5--5--5--3--3--3--3--2--2--2-|
G|-----5--5--5--5--3--3--3--3--1--1--1--1--0--0--0-|
C|-------------------------------------------------|
 |
 |GTR II
d|-------------------------------------------------|
A|-------------------------------------------------|
F|-------------------------------------------------|
C|----12-12-12-12-10-10-10-10--8--8--8--8--7--7--7-|
G|-------------------------------------------------|
C|-------------------------------------------------|
 |
 |GTR III
d|-------------------------------------------------|
A|-------------------------------------------------|
F|----15-15-15-15-14-14-14-14-12-12-12-12-10-10-10-|
C|-------------------------------------------------|
G|-------------------------------------------------|
C|-------------------------------------------------|

Verse

  GTR I,II,III
d|-------------------------------------------------|
A|-------------------------------------------------|
F|-------------------------------------------------|
C|--0----------------------------------------------|
G|--0----------------------------------------------|
C|--0----------------------------------------------|

Ring for 16 Bars

Pre Chorus

  GTR I,II,III
d|-------------------------------------------------|
A|-------------------------------------------------|
F|-------------------------------------------------|
C|--------------------------------------fbk--------|
G|--------------------------------------fbk--------|
C|--------------------------------------fbk--------|

Chorus

  GTR I
d|-------------------------------------------------|
A|-------------------------------------------------|
F|--7-----7--7--7--5--5--5--5--3--3--3--3--2--2--2-|
C|--7-----7--7--7--5--5--5--5--3--3--3--3--2--2--2-|
G|--5-----5--5--5--3--3--3--3--1--1--1--1--0--0--0-|
C|-------------------------------------------------|

  GTR I
d|-------------------------------------------------|
A|-------------------------------------------------|
F|-----7--7--7--7--5--5--5--5--3--3--3--3--2--2--2-|
C|-----7--7--7--7--5--5--5--5--3--3--3--3--2--2--2-|
G|-----5--5--5--5--3--3--3--3--1--1--1--1--0--0--0-|
C|-------------------------------------------------|

  GTR I
d|-------------------------------------------------|
A|-------------------------------------------------|
F|--3-----3-----3-----3----------------------------|
C|--3-----3-----3-----3-----5-----5-----5-----5----|
G|--1-----1-----1-----1-----5-----5-----5-----5----|
C|--------------------------5-----5-----5-----5----|

  GTR I
d|-------------------------------------------------|
A|-------------------------------------------------|
F|--3-----3-----3-----3-----2-----2-----2/-3\-2----|
C|--3-----3-----3-----3-----2-----2-----2/-3\-2----|
G|--1-----1-----1-----1-----0-----0-----0/-1\-0----|
C|-------------------------------------------------|

  GTR I
d|-------------------------------------------------|
A|-------------------------------------------------|
F|--7-----7--7--7--5--5--5--5--3--3--3--3--2--2--2-|
C|--7-----7--7--7--5--5--5--5--3--3--3--3--2--2--2-|
G|--5-----5--5--5--3--3--3--3--1--1--1--1--0--0--0-|
C|-------------------------------------------------|

  GTR I
d|-------------------------------------------------|
A|-------------------------------------------------|
F|-----7--7--7--7--5--5--5--5--3--3--3--3--2--2--2-|
C|-----7--7--7--7--5--5--5--5--3--3--3--3--2--2--2-|
G|-----5--5--5--5--3--3--3--3--1--1--1--1--0--0--0-|
C|-------------------------------------------------|

  GTR I
d|-------------------------------------------------|
A|-------------------------------------------------|
F|--3-----3-----3-----3----------------------------|
C|--3-----3-----3-----3-----5-----5-----5-----5----|
G|--1-----1-----1-----1-----5-----5-----5-----5----|
C|--------------------------5-----5-----5-----5----|

  GTR I
d|-------------------------------------------------|
A|-------------------------------------------------|
F|--3-----3-----3-----3-----2-----2-----2-----2----|
C|--3-----3-----3-----3-----2-----2-----2-----2----|
G|--1-----1-----1-----1-----0-----0-----0-----0----|
C|-------------------------------------------------|

Verse

  GTR I,II,III
d|-------------------------------------------------|
A|-------------------------------------------------|
F|-------------------------------------------------|
C|--0----------------------------------------------|
G|--0----------------------------------------------|
C|--0----------------------------------------------|

Ring for 16 Bars

Pre Chorus

  GTR I,II,III
d|-------------------------------------------------|
A|-------------------------------------------------|
F|-------------------------------------------------|
C|--------------------------------------fbk--------|
G|--------------------------------------fbk--------|
C|--------------------------------------fbk--------|

Chorus

  GTR I
d|-------------------------------------------------|
A|-------------------------------------------------|
F|--7-----7--7--7--5--5--5--5--3--3--3--3--2--2--2-|
C|--7-----7--7--7--5--5--5--5--3--3--3--3--2--2--2-|
G|--5-----5--5--5--3--3--3--3--1--1--1--1--0--0--0-|
C|-------------------------------------------------|

  GTR I
d|-------------------------------------------------|
A|-------------------------------------------------|
F|-----7--7--7--7--5--5--5--5--3--3--3--3--2--2--2-|
C|-----7--7--7--7--5--5--5--5--3--3--3--3--2--2--2-|
G|-----5--5--5--5--3--3--3--3--1--1--1--1--0--0--0-|
C|-------------------------------------------------|

  GTR I
d|-------------------------------------------------|
A|-------------------------------------------------|
F|--3-----3-----3-----3----------------------------|
C|--3-----3-----3-----3-----5-----5-----5-----5----|
G|--1-----1-----1-----1-----5-----5-----5-----5----|
C|--------------------------5-----5-----5-----5----|

  GTR I
d|-------------------------------------------------|
A|-------------------------------------------------|
F|--3-----3-----3-----3-----2-----2-----2/-3\-2----|
C|--3-----3-----3-----3-----2-----2-----2/-3\-2----|
G|--1-----1-----1-----1-----0-----0-----0/-1\-0----|
C|-------------------------------------------------|

  GTR I
d|-------------------------------------------------|
A|-------------------------------------------------|
F|--7-----7--7--7--5--5--5--5--3--3--3--3--2--2--2-|
C|--7-----7--7--7--5--5--5--5--3--3--3--3--2--2--2-|
G|--5-----5--5--5--3--3--3--3--1--1--1--1--0--0--0-|
C|-------------------------------------------------|

  GTR I
d|-------------------------------------------------|
A|-------------------------------------------------|
F|-----7--7--7--7--5--5--5--5--3--3--3--3--2--2--2-|
C|-----7--7--7--7--5--5--5--5--3--3--3--3--2--2--2-|
G|-----5--5--5--5--3--3--3--3--1--1--1--1--0--0--0-|
C|-------------------------------------------------|

  GTR I
d|-------------------------------------------------|
A|-------------------------------------------------|
F|--3-----3-----3-----3----------------------------|
C|--3-----3-----3-----3-----5-----5-----5-----5----|
G|--1-----1-----1-----1-----5-----5-----5-----5----|
C|--------------------------5-----5-----5-----5----|

  GTR I
d|-------------------------------------------------|
A|-------------------------------------------------|
F|--3-----3-----3-----3-----2-----2-----2-----2----|
C|--3-----3-----3-----3-----2-----2-----2-----2----|
G|--1-----1-----1-----1-----0-----0-----0-----0----|
C|-------------------------------------------------|

Bridge

  GTR I
d|-------------------------------------------------|
A|-------------------------------------------------|
F|-------------------------------------------------|
C|--3-----------------------5----------------------|
G|--3-----------------------5----------------------|
C|--3-----------------------5----------------------|

  GTR I
d|-------------------------------------------------|
A|-------------------------------------------------|
F|--7--------5--------3--------2-------------------|
C|--7-----x--5-----x--3-----x--2-----0--8--7--5--7-|
G|--5-----x--3-----x--1-----x--0-----0--8--7--5--7-|
C|--------x--------x--------x--------0--8--7--5--7-|

  GTR I
d|-------------------------------------------------|
A|-------------------------------------------------|
F|-------------------------------------------------|
C|--3-----------------------5----------------------|
G|--3-----------------------5----------------------|
C|--3-----------------------5----------------------|

  GTR I
d|-------------------------------------------------|
A|-------------------------------------------------|
F|--7--------5--------3--------2-------------------|
C|--7-----x--5-----x--3-----x--2-----0--8--7--5--7-|
G|--5-----x--3-----x--1-----x--0-----0--8--7--5--7-|
C|--------x--------x--------x--------0--8--7--5--7-|

  GTR I
d|-------------------------------------------------|
A|-------------------------------------------------|
F|-------------------------------------------------|
C|--3-----------------------5----------------------|
G|--3-----------------------5----------------------|
C|--3-----------------------5----------------------|

Bridge 2

  GTR II
d|-------------------------------------------------|
A|-------------------------------------------------|
F|-------------------------------------------------|
C|-------------------------------------------------|
G|--3--3--3--3--3--3--3--3--3--3--3--3--3--3--3--3-|
C|-------------------------------------------------|
 |  .  .  .  .  .  .  .  .  .  .  .  .  .  .  .  .
 |GTR III
d|-------------------------------------------------|
A|-------------------------------------------------|
F|-------------------------------------------------|
C|-------------------------------------------------|
G|--3--3--3--3--3--3--3--3--5--5--5--5--6--6--6--6-|
C|-------------------------------------------------|
    .  .  .  .  .  .  .  .  .  .  .  .  .  .  .  .

  GTR II
d|-------------------------------------------------|
A|-------------------------------------------------|
F|-------------------------------------------------|
C|-------------------------------------------------|
G|--3--3--3--3--3--3--3--3--3--3--3--3--3--3--3--3-|
C|-------------------------------------------------|
 |  .  .  .  .  .  .  .  .  .  .  .  .  .  .  .  .
 |GTR III
d|-------------------------------------------------|
A|-------------------------------------------------|
F|-------------------------------------------------|
C|-------------------------------------------------|
G|--3--3--3--3--3--3--3--3--1--1--1--1--1--1--1--1-|
C|-------------------------------------------------|
    .  .  .  .  .  .  .  .  .  .  .  .  .  .  .  .

  GTR II
d|-------------------------------------------------|
A|-------------------------------------------------|
F|-------------------------------------------------|
C|-------------------------------------------------|
G|--3--3--3--3--3--3--3--3--3--3--3--3--3--3--3--3-|
C|-------------------------------------------------|
 |  .  .  .  .  .  .  .  .  .  .  .  .  .  .  .  .
 |GTR III
d|-------------------------------------------------|
A|-------------------------------------------------|
F|-------------------------------------------------|
C|-------------------------------------------------|
G|--3--3--3--3--3--3--3--3--5--5--5--5--6--6--6--6-|
C|-------------------------------------------------|
    .  .  .  .  .  .  .  .  .  .  .  .  .  .  .  .

  GTR II
d|-------------------------------------------------|
A|-------------------------------------------------|
F|-------------------------------------------------|
C|-------------------------------------------------|
G|--3--3--3--3--3--3--3--3--3--3--3--3--3--3--3--3-|
C|-------------------------------------------------|
 |  .  .  .  .  .  .  .  .  .  .  .  .  .  .  .  .
 |GTR III
d|-------------------------------------------------|
A|-------------------------------------------------|
F|-------------------------------------------------|
C|-------------------------------------------------|
G|--3--3--3--3--3--3--3--3--1--1--1--1--1--1--1--1-|
C|-------------------------------------------------|
    .  .  .  .  .  .  .  .  .  .  .  .  .  .  .  .

  GTR I,II
d|-------------------------------------------------|
A|-------------------------------------------------|
F|-------------------------------------------------|
C|--5--5--5--5--5--5--5--5--5--5--5--5--5--5--5--5-|
G|--3--3--3--3--3--3--3--3--3--3--3--3--3--3--3--3-|
C|-------------------------------------------------|
 |  .  .  .  .  .  .  .  .  .  .  .  .  .  .  .  .
 |GTR III
d|-------------------------------------------------|
A|-------------------------------------------------|
F|-------------------------------------------------|
C|-------------------------------------------------|
G|--3--3--3--3--3--3--3--3--1--1--1--1--1--1--1--1-|
C|-------------------------------------------------|
    .  .  .  .  .  .  .  .  .  .  .  .  .  .  .  .

  GTR I
d|-------------------------------------------------|
A|-------------------------------------------------|
F|-------------------------------------------------|
C|--3--3--3--3--3--3--3--3--3--3--3--3--3--3--3--3-|
G|--1--1--1--1--1--1--1--1--1--1--1--1--1--1--1--1-|
C|-------------------------------------------------|
 |  .  .  .  .  .  .  .  .  .  .  .  .  .  .  .  .
 |GTR II
d|-------------------------------------------------|
A|-------------------------------------------------|
F|-------------------------------------------------|
C|--5--5--5--5--5--5--5--5--5--5--5--5--5--5--5--5-|
G|--3--3--3--3--3--3--3--3--3--3--3--3--3--3--3--3-|
C|-------------------------------------------------|
 |  .  .  .  .  .  .  .  .  .  .  .  .  .  .  .  .
 |GTR III
d|-------------------------------------------------|
A|-------------------------------------------------|
F|-------------------------------------------------|
C|-------------------------------------------------|
G|--3--3--3--3--3--3--3--3--1--1--1--1--1--1--1--1-|
C|-------------------------------------------------|
    .  .  .  .  .  .  .  .  .  .  .  .  .  .  .  .

  GTR I,II,III
d|-------------------------------------------------|
A|-------------------------------------------------|
F|-------------------------------------------------|
C|--3--3--3--3--3--3--3--3--3--3--3--3--3--3--3--3-|
G|--3--3--3--3--3--3--3--3--3--3--3--3--3--3--3--3-|
C|--3--3--3--3--3--3--3--3--3--3--3--3--3--3--3--3-|
    .  .  .  .  .  .  .  .  .  .  .  .  .  .  .  .

  GTR I
d|-------------------------------------------------|
A|-------------------------------------------------|
F|-------------------------------------------------|
C|--2--2--2--2--2--2--2--2--3--3--3--3--5----------|
G|--0--0--0--0--0--0--0--0--1--1--1--1--3----------|
C|-------------------------------------------------|
 |  .  .  .  .  .  .  .  .  .  .  .  .  .         
 |GTR II,III
d|-------------------------------------------------|
A|-------------------------------------------------|
F|-------------------------------------------------|
C|--3--3--3--3--3--3--3--3--3--3--3--3--3----------|
G|--3--3--3--3--3--3--3--3--3--3--3--3--3----------|
C|--3--3--3--3--3--3--3--3--3--3--3--3--3----------|
    .  .  .  .  .  .  .  .  .  .  .  .  .         

Chorus 2

  GTR I
d|-------------------------------------------------|
A|-------------------------------------------------|
F|--7-----7--7--7--5--5--5--5--3--3--3--3--2--2--2-|
C|--7-----7--7--7--5--5--5--5--3--3--3--3--2--2--2-|
G|--5-----5--5--5--3--3--3--3--1--1--1--1--0--0--0-|
C|-------------------------------------------------|

  GTR I
d|-------------------------------------------------|
A|-------------------------------------------------|
F|-----7--7--7--7--5--5--5--5--3--3--3--3--2--2--2-|
C|-----7--7--7--7--5--5--5--5--3--3--3--3--2--2--2-|
G|-----5--5--5--5--3--3--3--3--1--1--1--1--0--0--0-|
C|-------------------------------------------------|

  GTR I
d|-------------------------------------------------|
A|-------------------------------------------------|
F|--3-----3-----3-----3----------------------------|
C|--3-----3-----3-----3-----5-----5-----5-----5----|
G|--1-----1-----1-----1-----5-----5-----5-----5----|
C|--------------------------5-----5-----5-----5----|

  GTR I
d|-------------------------------------------------|
A|-------------------------------------------------|
F|--3-----3-----3-----3-----2-----2-----2/-3\-2----|
C|--3-----3-----3-----3-----2-----2-----2/-3\-2----|
G|--1-----1-----1-----1-----0-----0-----0/-1\-0----|
C|-------------------------------------------------|

  GTR I
d|-------------------------------------------------|
A|-------------------------------------------------|
F|--7-----7--7--7--5--5--5--5--3--3--3--3--2--2--2-|
C|--7-----7--7--7--5--5--5--5--3--3--3--3--2--2--2-|
G|--5-----5--5--5--3--3--3--3--1--1--1--1--0--0--0-|
C|-------------------------------------------------|

  GTR I
d|-------------------------------------------------|
A|-------------------------------------------------|
F|-----7--7--7--7--5--5--5--5--3--3--3--3--2--2--2-|
C|-----7--7--7--7--5--5--5--5--3--3--3--3--2--2--2-|
G|-----5--5--5--5--3--3--3--3--1--1--1--1--0--0--0-|
C|-------------------------------------------------|

  GTR I
d|-------------------------------------------------|
A|-------------------------------------------------|
F|--3-----3-----3-----3----------------------------|
C|--3-----3-----3-----3-----5-----5-----5-----5----|
G|--1-----1-----1-----1-----5-----5-----5-----5----|
C|--------------------------5-----5-----5-----5----|

  GTR I
d|-------------------------------------------------|
A|-------------------------------------------------|
F|--3-----3-----3-----3-----2-----2----------------|
C|--3-----3-----3-----3-----2-----2-----5-----5----|
G|--1-----1-----1-----1-----0-----0-----5-----5----|
C|--------------------------------------5-----5----|

Outro

  GTR I
d|-------------------------------------------------|
A|-------------------------------------------------|
F|-------------------------------------------------|
C|--8-----8-----8-----8-----8-----8-----8-----8----|
G|--8-----8-----8-----8-----8-----8-----8-----8----|
C|--8-----8-----8-----8-----8-----8-----8-----8----|

  GTR I
d|-------------------------------------------------|
A|-------------------------------------------------|
F|-------------------------------------------------|
C|--5-----5-----5-----5-----5-----5-----5-----5----|
G|--5-----5-----5-----5-----5-----5-----5-----5----|
C|--5-----5-----5-----5-----5-----5-----5-----5----|

  GTR I
d|-------------------------------------------------|
A|-------------------------------------------------|
F|-------------------------------------------------|
C|--0-----x--2-----x--3-----x--5-----x--7----7-----|
G|--0-----x--2-----x--3-----x--5-----x--7----7-----|
C|--0-----x--2-----x--3-----x--5-----x--7----7-----|

  GTR I
d|-------------------------------------------------|
A|-------------------------------------------------|
F|-------------------------------------------------|
C|--0-----x--2-----x--3-----x--5-----x--7----7-----|
G|--0-----x--2-----x--3-----x--5-----x--7----7-----|
C|--0-----x--2-----x--3-----x--5-----x--7----7-----|

  GTR I
d|-------------------------------------------------|
A|-------------------------------------------------|
F|-------------------------------------------------|
C|--8-----8-----8-----8-----8-----8-----8-----8----|
G|--8-----8-----8-----8-----8-----8-----8-----8----|
C|--8-----8-----8-----8-----8-----8-----8-----8----|

  GTR I
d|-------------------------------------------------|
A|-------------------------------------------------|
F|-------------------------------------------------|
C|--5-----5-----5-----5-----5-----5-----5-----5----|
G|--5-----5-----5-----5-----5-----5-----5-----5----|
C|--5-----5-----5-----5-----5-----5-----5-----5----|

  GTR I
d|-------------------------------------------------|
A|-------------------------------------------------|
F|-------------------------------------------------|
C|--8-----8-----8-----8-----8-----8-----8-----8----|
G|--8-----8-----8-----8-----8-----8-----8-----8----|
C|--8-----8-----8-----8-----8-----8-----8-----8----|

  GTR I
d|-------------------------------------------------|
A|-------------------------------------------------|
F|--------------------------5-----5-----5-----5----|
C|--5-----5-----5-----5-----5-----5-----5-----5----|
G|--5-----5-----5-----5-----3-----3-----3-----3----|
C|--5-----5-----5-----5----------------------------|

  GTR I
d|-------------------------------------------------|
A|-------------------------------------------------|
F|-------------------------------------------------|
C|--8-----8-----8-----8-----8-----8-----8-----8----|
G|--8-----8-----8-----8-----8-----8-----8-----8----|
C|--8-----8-----8-----8-----8-----8-----8-----8----|

  GTR I
d|-------------------------------------------------|
A|-------------------------------------------------|
F|--------------------------5-----5-----5-----5----|
C|--5-----5-----5-----5-----5-----5-----5-----5----|
G|--5-----5-----5-----5-----3-----3-----3-----3----|
C|--5-----5-----5-----5----------------------------|


| b  bend
| r  release bend
|trp triplet
|PH. pinch harmonic
|fbk feedback
| .  palm-mute
| /  slide up
| \  slide down
| h  hammer-on
| p  pull-off
| ~  vibrato
|(7) harmonic
| x  Mute note
===============================================================================
comments
print report bad tab
I want to post or [tab]
guest
You may want to rate the tab now too:
select rating
Please do not post tabs as comments. Select "correction" instead!