Oops, an error
Loading. Please wait.

I Dont Care Tab

ver4
ver4

Interactive

More versions @911Tabs.com
81,339 views 96 this week
1 commentread comment
1 2 3 4 5
excellent!
x 16
Autoscroll
+/-
esc
set tempo
stop
Contributor
Hey! There's an official Ultimate Guitar app which is ideal
for learning songs when you're away from computer. Get the app
WARNING: You are trying to view
                                    content from Ultimate-Guitar.com
                                    in an unauthorized application,
                                    which is prohibited.

                                    Please use an official Ultimate
                                    Guitar Tabs application for iPhone,
                                    iPad or Android to access legitimate
                                    chords, guitar, bass, and drum tabs
                                    from Ultimate-Guitar.com database.

                                    Type "ultimate guitar tabs" in Apple
                                    App Store's or Android Market's
                                    search to find the application.
Apocalyptica
I Don’t Care
Tabbed by U B the band
Tuning C G C F A D

Legend
pm-palm mute                     h-hammer on

I tabbed both versions, the official & the original. The official version is
03:40 seconds long & the original is 03:58 seconds long. The OFFICIAL version
is tabbed first & then followed by the original version. I hope that you like
this tab based off of what ever version that you have. Please comment & rate.

Intro: Cello for guitar 1 (clean)
D|-------------------15------------------------------13------------------11---|
A|------15-----15-----------13-----13-----13---13-----------11-----11---------|
F|----------------------------------------------------------------------------|
C|----------------------------------------------------------------------------|
G|----------------------------------------------------------------------------|
C|----------------------------------------------------------------------------|
                                                                              |
Intro: Cello for guitar 2 (clean)                                             |
D|----------------------------------------------------------------------------|
A|----------------------------------------------------------------------------|
F|----------------------------------------------------------------------------|
C|----------------------------------------------------------------------------|
G|----------------------------------------------------------------------------|
C|--5--5------------------------------------------------5--5------------------|

Intro: Cello for guitar 1 (clean)
D|----------------------------------------------------------------------------|
A|--10-----10-----10---10----11-----13-----10---------13-----11-----10-----8--|
F|----------------------------------------------------------------------------|
C|----------------------------------------------------------------------------|
G|----------------------------------------------------------------------------|
C|----------------------------------------------------------------------------|
                                                                              |
Intro: Cello for guitar 2 (clean)                                             |
D|----------------------------------------------------------------------------|
A|----------------------------------------------------------------------------|
F|----------------------------------------------------------------------------|
C|----------------------------------------------------------------------------|
G|----------------------------------------------------------------------------|
C|----------------------------------3--3---------------------1--1-------------|

Verse 1: Cello for Guitar 2 (clean & palm muted)
D|----------------------------------------------------------------------------|
A|----------------------------------------------------------------------------|
F|----------------------------------------------------------------------------|
C|----------------------------------------------------------------------------|
G|----------------------------------------------------------------------------|
C|--5--5--------------5--5--------------3--3--------------1--1----------------|

Verse 1: Cello for guitar 1 (clean)
D|----------------------------------------------------------------------------|
A|----------------------------------------------------------------------------|
F|--0--------------2--3-----------------2-----------------0-------------------|
C|----------------------------------------------------------------------------|
G|----------------------------------------------------------------------------|
C|----------------------------------------------------------------------------|
                                                                              |
Verse 1: Cello for Guitar 2 (clean & palm muted)                              |
D|----------------------------------------------------------------------------|
A|----------------------------------------------------------------------------|
F|----------------------------------------------------------------------------|
C|----------------------------------------------------------------------------|
G|----------------------------------------------------------------------------|
C|--5--5--------------5--5--------------3--3--------------1--1----------------|

Pre Chorus: Cello for Guitar 1
D|--0--------------2--3-----------------2-----------------0--------------2--3-|
A|----------------------------------------------------------------------------|
F|----------------------------------------------------------------------------|
C|----------------------------------------------------------------------------|
G|----------------------------------------------------------------------------|
C|----------------------------------------------------------------------------|
                                                                              |
Pre Chorus: Cello for Guitar 1 (Clean & palm muted)                           |
D|----------------------------------------------------------------------------|
A|-------3--1--1--0--------3--1--1--0-----------1-----0----------1------------|
F|-------------------------------------------------0-------------------0------|
C|--------------------------------------0--0------------------------2---------|
G|--------------------------------------------------------3--3-----------55-66|
C|--2--2--------------2--2----------------------------------------------------|

Chorus: Guitar 3 (Adam) (Distorted)
D|----------------------------------------------------------------------------|
A|----------------------------------------------------------------------------|
F|----------------------------------------------------------------------------|
C|--2-2-2-2-2-2-2--4--5-5-5-5-5-5-5-----4-4-4-4-4-4-4-4--5-5-5-5-5-5--4-4-----|
G|--2-2-2-2-2-2-2--4--5-5-5-5-5-5-5--0--2-2-2-2-2-2-2-2--3-3-3-3-3-3--2-2-----|
C|--2-2-2-2-2-2-2--4--5-5-5-5-5-5-5-------------------------------------------|

Chorus: Guitar 3 (Adam) (Distorted)
D|----------------------------------------------------------------------------|
A|----------------------------------------------------------------------------|
F|----------------------------------------------------------------------------|
C|--2-2-2-2-2-2-2--4--5-5-5-5-5-5-5-----4-4-4-4-4-4-4-4--5-5-5-5-5-5-5-5------|
G|--2-2-2-2-2-2-2--4--5-5-5-5-5-5-5--0--2-2-2-2-2-2-2-2--3-3-3-3-3-3-3-3------|
C|--2-2-2-2-2-2-2--4--5-5-5-5-5-5-5-------------------------------------------|

Verse 2: Guitar 3 (Distorted)
D|----------------------------------------------------------------------------|
A|----------------------------------------------------------------------------|
F|----------------------------------------------------------------------------|
C|-----------------------------------------------------------5-5-5-------5-5\-|
G|--2-2-2---------2-2--2-2-2---------2-2--0-0-0---------0-0--3-3-3-------3-3\-|
C|--2-2-2---------2-2--2-2-2---------2-2--0-0-0---------0-0-------------------|
    pmpmpm        pmpm pmpmpm        pmpm pmpmpm        pmpm pmpmpm      pmpm

Verse 2: Guitar 3 (Distorted)
D|----------------------------------------------------------------------------|
A|----------------------------------------------------------------------------|
F|----------------------------------------------------------------------------|
C|-----------------------------------------------------------5-5-5--5-5-5--5-5|
G|--2-2-2--2-2-2--2-2--2-2-2--2-2-2--2-2--0-0-0--0-0-0--0-0--3-3-3--3-3-3--3-3|
C|--2-2-2--2-2-2--2-2--2-2-2--2-2-2--2-2--0-0-0--0-0-0--0-0-------------------|
    pmpmpm pmpmpm pmpm pmpmpm pmpmpm pmpm pmpmpm pmpmpm pmpm pmpmpm pmpmpm pmpm

Pre Chorus: Guitar 3 (Distorted)
D|----------------------------------------------------------------------------|
A|----------------------------------------------------------------------------|
F|----------------------------------------------------------------------------|
C|--7-----------------8-------------------------------------------------------|
G|--5-----------------6-------------------------------------------------------|
C|----------------------------------------------------------------------------|

Chorus: Guitar 3 (Adam) (Distorted)
D|----------------------------------------------------------------------------|
A|----------------------------------------------------------------------------|
F|----------------------------------------------------------------------------|
C|--2-2-2-2-2-2-2--4--5-5-5-5-5-5-5-----4-4-4-4-4-4-4-4--5-5-5-5-5-5--4-4-----|
G|--2-2-2-2-2-2-2--4--5-5-5-5-5-5-5--0--2-2-2-2-2-2-2-2--3-3-3-3-3-3--2-2-----|
C|--2-2-2-2-2-2-2--4--5-5-5-5-5-5-5-------------------------------------------|

Chorus: Cello for Guitar 1 (Clean)
D|-----------------------------------------------------------------0--2-------|
A|----------------------------------------------------------------------------|
F|----------------------------------------------------------------------------|
C|----------------------------------------------------------------------------|
G|----------------------------------------------------------------------------|
C|----------------------------------------------------------------------------|
                                                                              |
Chorus: Guitar 3 (Adam) (Distorted)                                           |
D|----------------------------------------------------------------------------|
A|----------------------------------------------------------------------------|
F|----------------------------------------------------------------------------|
C|--2-2-2-2-2-2-2--4--5-5-5-5-5-5-5-----4-4-4-4-4-4-4-4--5-5-5-5-5-5--4-4-----|
G|--2-2-2-2-2-2-2--4--5-5-5-5-5-5-5--0--2-2-2-2-2-2-2-2--3-3-3-3-3-3--2-2-----|
C|--2-2-2-2-2-2-2--4--5-5-5-5-5-5-5-------------------------------------------|

Bridge: Cello for Guitar 1 (Clean)
D|--3-------2-----0--2-----------2----0----------------0---------2------------|
A|-----------------------3----------------------------------------------------|
F|----------------------------------------------------------------------------|
C|----------------------------------------------------------------------------|
G|----------------------------------------------------------------------------|
C|----------------------------------------------------------------------------|
                                                                              |
Bridge: Guitar 3 (Adam) (Distorted)                                           |
D|----------------------------------------------------------------------------|
A|----------------------------------------------------------------------------|
F|----------------------------------------------------------------------------|
C|------------------------------------5-5-5-5-5-5-5-5--2-2-2-2-2-2--4-4-------|
G|--2-2-2-2-2-2-2-2--5-5-5-5-5-5-5-5--3-3-3-3-3-3-3-3--0-0-0-0-0-0--2-2-------|
C|--2-2-2-2-2-2-2-2--5-5-5-5-5-5-5-5------------------------------------------|

Bridge: Cello for Guitar 1 (Clean)
D|--3-------2-----0--2-----------2----0----------------0---------2------------|
A|-----------------------3----------------------------------------------------|
F|----------------------------------------------------------------------------|
C|----------------------------------------------------------------------------|
G|----------------------------------------------------------------------------|
C|----------------------------------------------------------------------------|
                                                                              |
Bridge: Guitar 3 (Adam) (Distorted)                                           |
D|----------------------------------------------------------------------------|
A|----------------------------------------------------------------------------|
F|----------------------------------------------------------------------------|
C|------------------------------------5-5-5-5-5-5-5-5--7-7-7-7-7-7-7-7--2-----|
G|--2-2-2-2-2-2-2-2--5-5-5-5-5-5-5-5--3-3-3-3-3-3-3-3--5-5-5-5-5-5-5-5--2-----|
C|--2-2-2-2-2-2-2-2--5-5-5-5-5-5-5-5------------------------------------2-----|

Piano Solo: PLAY 3 TIMES
D|--22h24--20h22--19h20--17h19--15h17--14h15--12h14--10h12--8h10--7h8--5h7----|
A|----------------------------------------------------------------------------|
F|----------------------------------------------------------------------------|
C|----------------------------------------------------------------------------|
G|----------------------------------------------------------------------------|
C|----------------------------------------------------------------------------|

Piano Solo: Play 1 TIME
D|--5h7--7h8--8h10--10h12--12h14--14h15--15h17--17h19--19h20--22--22h24--19---|
A|----------------------------------------------------------------------------|
F|----------------------------------------------------------------------------|
C|----------------------------------------------------------------------------|
G|----------------------------------------------------------------------------|
C|----------------------------------------------------------------------------|

Chorus: Guitar 3 (Adam) (Distorted)
D|----------------------------------------------------------------------------|
A|----------------------------------------------------------------------------|
F|----------------------------------------------------------------------------|
C|--2-2-2-2-2-2-2--4--5-5-5-5-5-5-5-----4-4-4-4-4-4-4-4--5-5-5-5-5-5--4-4-----|
G|--2-2-2-2-2-2-2--4--5-5-5-5-5-5-5--0--2-2-2-2-2-2-2-2--3-3-3-3-3-3--2-2-----|
C|--2-2-2-2-2-2-2--4--5-5-5-5-5-5-5-------------------------------------------|

Chorus: Guitar 3 (Adam) (Distorted)
D|----------------------------------------------------------------------------|
A|----------------------------------------------------------------------------|
F|----------------------------------------------------------------------------|
C|--2-2-2-2-2-2-2--4--5-5-5-5-5-5-5-----4-4-4-4-4-4-4-4--5-5-5-5-5-5--4-4-----|
G|--2-2-2-2-2-2-2--4--5-5-5-5-5-5-5--0--2-2-2-2-2-2-2-2--3-3-3-3-3-3--2-2-----|
C|--2-2-2-2-2-2-2--4--5-5-5-5-5-5-5-------------------------------------------|

Chorus 2: Guitar 3 (Adam) (Distorted)
D|----------------------------------------------------------------------------|
A|----------------------------------------------------------------------------|
F|----------------------------------------------------------------------------|
C|--2-2-2-2-2-2-2-2--5-5-5-5-5-5-5-5--4-4-4-4-4-4-4-4--5-5-5-5-5-5--4-4-------|
G|--2-2-2-2-2-2-2-2--5-5-5-5-5-5-5-5--2-2-2-2-2-2-2-2--3-3-3-3-3-3--2-2-------|
C|--2-2-2-2-2-2-2-2--5-5-5-5-5-5-5-5------------------------------------------|

Chorus 2: Guitar 3 (Adam) (Distorted)
D|----------------------------------------------------------------------------|
A|----------------------------------------------------------------------------|
F|----------------------------------------------------------------------------|
C|--2-2-2-2-2-2-2-2--5-5-5-5-5-5-5-5--4-4-4-4-4-4-4-4--5-5-5-5-5-5-5-5-5--2---|
G|--2-2-2-2-2-2-2-2--5-5-5-5-5-5-5-5--2-2-2-2-2-2-2-2--3-3-3-3-3-3-3-3-3--2---|
C|--2-2-2-2-2-2-2-2--5-5-5-5-5-5-5-5--------------------------------------2---|

Finished!





I Don’t Care (Demo)

This is the ORIGINAL 03:58 sec. Version

Intro: Cello for guitar 1 (clean)
D|-------------------15------------------------------13------------------11---|
A|------15-----15-----------13-----13-----13---13-----------11-----11---------|
F|----------------------------------------------------------------------------|
C|----------------------------------------------------------------------------|
G|----------------------------------------------------------------------------|
C|----------------------------------------------------------------------------|

Intro: Cello for guitar 1 (clean)
D|----------------------------------------------------------------------------|
A|--10-----10-----10---10----11-----13-----10---------13-----11-----10-----8--|
F|----------------------------------------------------------------------------|
C|----------------------------------------------------------------------------|
G|----------------------------------------------------------------------------|
C|----------------------------------------------------------------------------|

Verse 1: Cello for guitar 1 (clean) PLAY VERSE 2 TIMES
D|----------------------------------------------------------------------------|
A|----------------------------------------------------------------------------|
F|--0--------------2--3-----------------2-----------------0-------------------|
C|----------------------------------------------------------------------------|
G|----------------------------------------------------------------------------|
C|----------------------------------------------------------------------------|
                                                                              |
Verse 1: Cello for Guitar 2 (clean & palm muted)                              |
D|----------------------------------------------------------------------------|
A|----------------------------------------------------------------------------|
F|----------------------------------------------------------------------------|
C|----------------------------------------------------------------------------|
G|----------------------------------------------------------------------------|
C|--5--5--------------5--5--------------3--3--------------1--1----------------|

Pre Chorus: Cello for Guitar 1
D|--0--------------2--3-----------------2-----------------0-------------------|
A|----------------------------------------------------------------------------|
F|----------------------------------------------------------------------------|
C|----------------------------------------------------------------------------|
G|----------------------------------------------------------------------------|
C|----------------------------------------------------------------------------|
                                                                              |
Pre Chorus: Cello for Guitar 1 (Clean & palm muted)                           |
D|----------------------------------------------------------------------------|
A|-------3--1--1--0--------3--1--1--0-----------1-----0----------1------------|
F|-------------------------------------------------0-------------------0------|
C|--------------------------------------0--0------------------------2---------|
G|--------------------------------------------------------3--3----------------|
C|--2--2--------------2--2----------------------------------------------------|

Pre Chorus: Cello for Guitar 1
D|--0--------------2--3-----------------2-----------------0--------------2--3-|
A|----------------------------------------------------------------------------|
F|----------------------------------------------------------------------------|
C|----------------------------------------------------------------------------|
G|----------------------------------------------------------------------------|
C|----------------------------------------------------------------------------|
                                                                              |
Pre Chorus: Cello for Guitar 1 (Clean & palm muted)                           |
D|----------------------------------------------------------------------------|
A|-------3--2--2--0--------3--1--1--0-----------1-----0----------1------------|
F|-------------------------------------------------0-------------------0------|
C|--------------------------------------0--0------------------------2---------|
G|--------------------------------------------------------3--3----------------|
C|--2--2--------------2--2----------------------------------------------------|

Chorus: Guitar 3 (Adam) (Distorted)
D|----------------------------------------------------------------------------|
A|----------------------------------------------------------------------------|
F|----------------------------------------------------------------------------|
C|--2-2-2-2-2-2-2--4--5-5-5-5-5-5-5-----4-4-4-4-4-4-4-4--5-5-5-5-5-5--4-4-----|
G|--2-2-2-2-2-2-2--4--5-5-5-5-5-5-5--0--2-2-2-2-2-2-2-2--3-3-3-3-3-3--2-2-----|
C|--2-2-2-2-2-2-2--4--5-5-5-5-5-5-5-------------------------------------------|

Chorus: Guitar 3 (Adam) (Distorted)
D|----------------------------------------------------------------------------|
A|----------------------------------------------------------------------------|
F|----------------------------------------------------------------------------|
C|--2-2-2-2-2-2-2--4--5-5-5-5-5-5-5-----4-4-4-4-4-4-4-4--5-5-5-5-5-5-5-5--5---|
G|--2-2-2-2-2-2-2--4--5-5-5-5-5-5-5--0--2-2-2-2-2-2-2-2--3-3-3-3-3-3-3-3--5---|
C|--2-2-2-2-2-2-2--4--5-5-5-5-5-5-5---------------------------------------5---|

Post Chorus: Cello for guitar 1 (clean)
D|---------------15------------------------------13------------------11-------|
A|--15-----15-----------13-----13-----13---13-----------11-----11-------------|
F|----------------------------------------------------------------------------|
C|----------------------------------------------------------------------------|
G|----------------------------------------------------------------------------|
C|----------------------------------------------------------------------------|
                                                                              |
Post Chorus: Cello for guitar 1 (clean)                                       |
D|----------------------------------------------------------------------------|
A|--10-----10-----10---10----11-----13-----10---------13-----11-----10-----8--|
F|----------------------------------------------------------------------------|
C|----------------------------------------------------------------------------|
G|----------------------------------------------------------------------------|
C|----------------------------------------------------------------------------|

Verse 2: Guitar 3 (Distorted)
D|----------------------------------------------------------------------------|
A|----------------------------------------------------------------------------|
F|----------------------------------------------------------------------------|
C|-----------------------------------------------------------5-5-5-------5-5\-|
G|--2-2-2---------2-2--2-2-2---------2-2--0-0-0---------0-0--3-3-3-------3-3\-|
C|--2-2-2---------2-2--2-2-2---------2-2--0-0-0---------0-0-------------------|
    pmpmpm        pmpm pmpmpm        pmpm pmpmpm        pmpm pmpmpm      pmpm

Verse 2: Guitar 3 (Distorted)
D|----------------------------------------------------------------------------|
A|----------------------------------------------------------------------------|
F|----------------------------------------------------------------------------|
C|-----------------------------------------------------------5-5-5--5-5-5--5-5|
G|--2-2-2--2-2-2--2-2--2-2-2--2-2-2--2-2--0-0-0--0-0-0--0-0--3-3-3--3-3-3--3-3|
C|--2-2-2--2-2-2--2-2--2-2-2--2-2-2--2-2--0-0-0--0-0-0--0-0-------------------|
    pmpmpm pmpmpm pmpm pmpmpm pmpmpm pmpm pmpmpm pmpmpm pmpm pmpmpm pmpmpm pmpm

Pre Chorus: Guitar 3 (Distorted)
D|----------------------------------------------------------------------------|
A|----------------------------------------------------------------------------|
F|----------------------------------------------------------------------------|
C|--7-----------------8-------------------------------------------------------|
G|--5-----------------6-------------------------------------------------------|
C|----------------------------------------------------------------------------|

Chorus: Guitar 3 (Adam) (Distorted)
D|----------------------------------------------------------------------------|
A|----------------------------------------------------------------------------|
F|----------------------------------------------------------------------------|
C|--2-2-2-2-2-2-2--4--5-5-5-5-5-5-5-----4-4-4-4-4-4-4-4--5-5-5-5-5-5--4-4-----|
G|--2-2-2-2-2-2-2--4--5-5-5-5-5-5-5--0--2-2-2-2-2-2-2-2--3-3-3-3-3-3--2-2-----|
C|--2-2-2-2-2-2-2--4--5-5-5-5-5-5-5-------------------------------------------|

Chorus: Cello for Guitar 1 (Clean)
D|-----------------------------------------------------------------0--2-------|
A|----------------------------------------------------------------------------|
F|----------------------------------------------------------------------------|
C|----------------------------------------------------------------------------|
G|----------------------------------------------------------------------------|
C|----------------------------------------------------------------------------|
                                                                              |
Chorus: Guitar 3 (Adam) (Distorted)                                           |
D|----------------------------------------------------------------------------|
A|----------------------------------------------------------------------------|
F|----------------------------------------------------------------------------|
C|--2-2-2-2-2-2-2--4--5-5-5-5-5-5-5-----4-4-4-4-4-4-4-4--5-5-5-5-5-5--4-4-----|
G|--2-2-2-2-2-2-2--4--5-5-5-5-5-5-5--0--2-2-2-2-2-2-2-2--3-3-3-3-3-3--2-2-----|
C|--2-2-2-2-2-2-2--4--5-5-5-5-5-5-5-------------------------------------------|

Bridge: Cello for Guitar 1 (Clean)
D|--3-------2-----0--2-----------2----0----------------0---------2------------|
A|-----------------------3----------------------------------------------------|
F|----------------------------------------------------------------------------|
C|----------------------------------------------------------------------------|
G|----------------------------------------------------------------------------|
C|----------------------------------------------------------------------------|
                                                                              |
Bridge: Guitar 3 (Adam) (Distorted)                                           |
D|----------------------------------------------------------------------------|
A|----------------------------------------------------------------------------|
F|----------------------------------------------------------------------------|
C|------------------------------------5-5-5-5-5-5-5-5--2-2-2-2-2-2--4-4-------|
G|--2-2-2-2-2-2-2-2--5-5-5-5-5-5-5-5--3-3-3-3-3-3-3-3--0-0-0-0-0-0--2-2-------|
C|--2-2-2-2-2-2-2-2--5-5-5-5-5-5-5-5------------------------------------------|

Bridge: Cello for Guitar 1 (Clean)
D|--3-------2-----0--2-----------2----0----------------0---------2------------|
A|-----------------------3----------------------------------------------------|
F|----------------------------------------------------------------------------|
C|----------------------------------------------------------------------------|
G|----------------------------------------------------------------------------|
C|----------------------------------------------------------------------------|
                                                                              |
Bridge: Guitar 3 (Adam) (Distorted)                                           |
D|----------------------------------------------------------------------------|
A|----------------------------------------------------------------------------|
F|----------------------------------------------------------------------------|
C|------------------------------------5-5-5-5-5-5-5-5--7-7-7-7-7-7-7-7--9-----|
G|--2-2-2-2-2-2-2-2--5-5-5-5-5-5-5-5--3-3-3-3-3-3-3-3--5-5-5-5-5-5-5-5--7-----|
C|--2-2-2-2-2-2-2-2--5-5-5-5-5-5-5-5------------------------------------------|

Piano Solo: (Clean with Delay) PLAY 3 TIMES
D|--22h24--20h22--19h20--17h19--15h17--14h15--12h14--10h12--8h10--7h8--5h7----|
A|----------------------------------------------------------------------------|
F|----------------------------------------------------------------------------|
C|----------------------------------------------------------------------------|
G|----------------------------------------------------------------------------|
C|----------------------------------------------------------------------------|

Piano Solo: (Clean with Delay) Play 1 TIME
D|--5h7--7h8--8h10--10h12--12h14--14h15--15h17--17h19--19h20--22--22h24--19---|
A|----------------------------------------------------------------------------|
F|----------------------------------------------------------------------------|
C|----------------------------------------------------------------------------|
G|----------------------------------------------------------------------------|
C|----------------------------------------------------------------------------|

Chorus: Guitar 3 (Adam) (Distorted)
D|----------------------------------------------------------------------------|
A|----------------------------------------------------------------------------|
F|----------------------------------------------------------------------------|
C|--2-2-2-2-2-2-2--4--5-5-5-5-5-5-5-----4-4-4-4-4-4-4-4--5-5-5-5-5-5--4-4-----|
G|--2-2-2-2-2-2-2--4--5-5-5-5-5-5-5--0--2-2-2-2-2-2-2-2--3-3-3-3-3-3--2-2-----|
C|--2-2-2-2-2-2-2--4--5-5-5-5-5-5-5-------------------------------------------|

Chorus: Guitar 3 (Adam) (Distorted)
D|----------------------------------------------------------------------------|
A|----------------------------------------------------------------------------|
F|----------------------------------------------------------------------------|
C|--2-2-2-2-2-2-2--4--5-5-5-5-5-5-5-----4-4-4-4-4-4-4-4--5-5-5-5-5-5--4-4-----|
G|--2-2-2-2-2-2-2--4--5-5-5-5-5-5-5--0--2-2-2-2-2-2-2-2--3-3-3-3-3-3--2-2-----|
C|--2-2-2-2-2-2-2--4--5-5-5-5-5-5-5-------------------------------------------|

Chorus 2: Guitar 3 (Adam) (Distorted)
D|----------------------------------------------------------------------------|
A|----------------------------------------------------------------------------|
F|----------------------------------------------------------------------------|
C|--2-2-2-2-2-2-2-2--5-5-5-5-5-5-5-5--4-4-4-4-4-4-4-4--5-5-5-5-5-5--4-4-------|
G|--2-2-2-2-2-2-2-2--5-5-5-5-5-5-5-5--2-2-2-2-2-2-2-2--3-3-3-3-3-3--2-2-------|
C|--2-2-2-2-2-2-2-2--5-5-5-5-5-5-5-5------------------------------------------|

Chorus 2: Guitar 3 (Adam) (Distorted)
D|----------------------------------------------------------------------------|
A|----------------------------------------------------------------------------|
F|----------------------------------------------------------------------------|
C|--2-2-2-2-2-2-2-2--5-5-5-5-5-5-5-5--4-4-4-4-4-4-4-4--5-5-5-5-5-5-5-5--5---2-|
G|--2-2-2-2-2-2-2-2--5-5-5-5-5-5-5-5--2-2-2-2-2-2-2-2--3-3-3-3-3-3-3-3--3---2-|
C|--2-2-2-2-2-2-2-2--5-5-5-5-5-5-5-5----------------------------------------2-|

Finished!


comments
print report bad tab
1 comment total.
0 reply
ZeroYuy wrote on February 1 2009, 01:55 pm

Awesome tab. Perfect. 5*'s.

Just wish I had more time to nail it.

I want to post or [tab]
guest
You may want to rate the tab now too:
select rating
Please do not post tabs as comments. Select "correction" instead!