Oops, an error
Loading. Please wait.

You Could Have Been A Lady Tab

ver2
ver2

Whole song

More versions @911Tabs.com
6,002 views 1 this week
no commentswrite comment
1 2 3 4 5
accurate
x 3
Autoscroll
+/-
esc
set tempo
stop
NEW! There's an official Ultimate Guitar app which is ideal
for learning songs when you're away from computer. Get the app
WARNING: You are trying to view
                                    content from Ultimate-Guitar.com
                                    in an unauthorized application,
                                    which is prohibited.

                                    Please use an official Ultimate
                                    Guitar Tabs application for iPhone,
                                    iPad or Android to access legitimate
                                    chords, guitar, bass, and drum tabs
                                    from Ultimate-Guitar.com database.

                                    Type "ultimate guitar tabs" in Apple
                                    App Store's or Android Market's
                                    search to find the application.
                           YOU COULD HAVE BEEN A LADY
                            As recorded by April Wine
                         (From the 1972 Album ON RECORD)

Words and Music by Errol Brown and Anthony Wilson

          D5                   C5                   G5                   G5X
      x 5 7 7 x x          x 3 5 5 x x          3 5 5 x x x        x 10 12 12 x x

Gtr I (E A D G B E) - 'Rhythm Gtr'
Gtr II (E A D G B E) - 'Lead guitar'
Gtr III (E A D G B E) - 'Solo Gtr 1'
Gtr IV (E A D G B E) - 'Solo Gtr 2'

 Intro
  Q=114
  D5                     C5
 4/4
  Gtr I
  E S S S S E S E S Q    E S S S S E S S S S E +E
  | | | | | | | | | |    | | | | | | | | | | |  |
  / x x x x / x / x /    / x x x x / x x / x /  /

  Gtr II
  W                      W
|----------------------|--------------------------|
|----------------------|--------------------------|
|----------------------|--------------------------|
|----------------------|--------------------------|
|----------------------|--------------------------|
|----------------------|--------------------------|


  G5                         D5
  E S S S S E S S S S E +E   E S S S S E S S S S E +E
  | | | | | | | | | | |  |   | | | | | | | | | | |  |
  / x x x x / x x / x /  /   / x x x x / x x / x /  /

  W                          W
|--------------------------|----------------------------|
|--------------------------|----------------------------|
|--------------------------|----------------------------|
|--------------------------|----------------------------|
|--------------------------|----------------------------|
|--------------------------|----------------------------|


  D5                                C5
 4/4
  E   S S S S E S E      S  Q       E   S S S S E S S     S  S  E   E
  |   | | | | | | |      |  |       |   | | | | | | |     |  |  |   |
  /   x x x x / x /      x  /       /   x x x x / x x     /  x  /   /

  S S S E   S E S E     +S  S S E   S S S E   S E S E       +S  S S E
|---------------------------------|-----------------------------------|
|---------------------------------|-----------------------------------|
|---------------------------------|-----------------------------------|
|-----x-3---x-5-x-3b3.5-(3)-------|-----x-3---x-5-x-3b3.5---(3)-------|
|-3h5-----------------------5-3-5-|-3h5-------------------------5-3-5-|
|---------------------------------|-----------------------------------|


  G5                                   D5
  E   S S S S E S S     S  S  E   +E   E   S S S S E S S     S  S  E   +E
  |   | | | | | | |     |  |  |    |   |   | | | | | | |     |  |  |    |
  /   x x x x / x x     /  x  /    /   /   x x x x / x x     /  x  /    /

  S S S E   S E S E       +S  S S  E   S S S E   S E S E       +S  S S  E
|------------------------------------|---------------------------------------|
|------------------------------------|---------------------------------------|
|------------------------------------|---------------------------------------|
|-----x-3---x-5-x-3b3.5---(3)--------|-----x-3---x-5-x-3b3.5---(3)-----------|
|-3h5-------------------------5-3--5-|-3h5-------------------------5-3--5----|
|------------------------------------|---------------------------------------|


  D5                                C5
 4/4
  E   S S S S E S E      S  Q       E   S S S S E S S     S  S  E   E
  |   | | | | | | |      |  |       |   | | | | | | |     |  |  |   |
  /   x x x x / x /      x  /       /   x x x x / x x     /  x  /   /

  S S S E   S E S E     +S  S S E   S S S E   S E S E       +S  S S E
|---------------------------------|-----------------------------------|
|---------------------------------|-----------------------------------|
|---------------------------------|-----------------------------------|
|-----x-3---x-5-x-3b3.5-(3)-------|-----x-3---x-5-x-3b3.5---(3)-------|
|-3h5-----------------------5-3-5-|-3h5-------------------------5-3-5-|
|---------------------------------|-----------------------------------|


  G5                                   D5
  E   S S S S E S S     S  S  E   +E   E   S S S S E S S     S  S  E   +E
  |   | | | | | | |     |  |  |    |   |   | | | | | | |     |  |  |    |
  /   x x x x / x x     /  x  /    /   /   x x x x / x x     /  x  /    /

  S S S E   S E S E       +S  S S  E   S S S E   S E S E       +S  S S  E
|------------------------------------|---------------------------------------|
|------------------------------------|---------------------------------------|
|------------------------------------|---------------------------------------|
|-----x-3---x-5-x-3b3.5---(3)--------|-----x-3---x-5-x-3b3.5---(3)-----------|
|-3h5-------------------------5-3--5-|-3h5-------------------------5-3--5----|
|------------------------------------|---------------------------------------|


 Chorus
  D5                                  C5
 4/4
  E   S S S S E S S     S  S  Q       E   S S S S E S S     S  S  E   E
  |   | | | | | | |     |  |  |       |   | | | | | | |     |  |  |   |
  /   x x x x / x x     /  x  /       /   x x x x / x x     /  x  /   /

  S S S E   S E S E       +S  S S E   S S S E   S E S E       +S  S S E
|-----------------------------------|-----------------------------------|
|-----------------------------------|-----------------------------------|
|-----------------------------------|-----------------------------------|
|-----x-3---x-5-x-3b3.5---(3)-------|-----x-3---x-5-x-3b3.5---(3)-------|
|-3h5-------------------------5-3-5-|-3h5-------------------------5-3-5-|
|-----------------------------------|-----------------------------------|


  G5                                   D5
  E   S S S S E S S     S  S  E   +E   E   S S S S E S S     S  S  E   +E
  |   | | | | | | |     |  |  |    |   |   | | | | | | |     |  |  |    |
  /   x x x x / x x     /  x  /    /   /   x x x x / x x     /  x  /    /

  S S S E   S E S E       +S  S S  E   S S S E   S E S E       +S  S S  E
|------------------------------------|---------------------------------------|
|------------------------------------|---------------------------------------|
|------------------------------------|---------------------------------------|
|-----x-3---x-5-x-3b3.5---(3)--------|-----x-3---x-5-x-3b3.5---(3)-----------|
|-3h5-------------------------5-3--5-|-3h5-------------------------5-3--5----|
|------------------------------------|---------------------------------------|


  D5                                  C5
 4/4
  E   S S S S E S S     S  S  Q       E   S S S S E S S     S  S  E   E
  |   | | | | | | |     |  |  |       |   | | | | | | |     |  |  |   |
  /   x x x x / x x     /  x  /       /   x x x x / x x     /  x  /   /

  S S S E   S E S E       +S  S S E   S S S E   S E S E       +S  S S E
|-----------------------------------|-----------------------------------|
|-----------------------------------|-----------------------------------|
|-----------------------------------|-----------------------------------|
|-----x-3---x-5-x-3b3.5---(3)-------|-----x-3---x-5-x-3b3.5---(3)-------|
|-3h5-------------------------5-3-5-|-3h5-------------------------5-3-5-|
|-----------------------------------|-----------------------------------|


  G5                                   D5
  E   S S S S E S S     S  S  E   +E   E   S S S S E S S     S  S  E   +E
  |   | | | | | | |     |  |  |    |   |   | | | | | | |     |  |  |    |
  /   x x x x / x x     /  x  /    /   /   x x x x / x x     /  x  /    /

  S S S E   S E S E       +S  S S  E   S S S E   S E S E       +S  S S  E
|------------------------------------|---------------------------------------|
|------------------------------------|---------------------------------------|
|------------------------------------|---------------------------------------|
|-----x-3---x-5-x-3b3.5---(3)--------|-----x-3---x-5-x-3b3.5---(3)-----------|
|-3h5-------------------------5-3--5-|-3h5-------------------------5-3--5----|
|------------------------------------|---------------------------------------|


 Solo 1
  D5                                  C5
 4/4
  Gtr I
   E    S S S S E   S  S S S  Q        E S S S S E  S     S S S  E      E
   |    | | | | |   |  | | |  |        | | | | | |  |     | | |  |      |
   /    x x x x /   x  x / x  /        / x x x x /  x     x / x  /      /

  Gtr III
   H               +Q         Q        H            Q            E      E
|-----------------------------------|-------------------------------------|
|-17b19-----------(17)-------17b19r=|=17-----------17pb19-------17pb19r15-|
|-----------------------------------|-------------------------------------|
|-----------------------------------|-------------------------------------|
|-----------------------------------|-------------------------------------|
|-----------------------------------|-------------------------------------|


  G5                                                     D5
   E  S S S S  E    S  S  S      S  E        +E           E S S  S    S E  S      S  S S  E  +E
   |  | | | |  |    |  |  |      |  |         |           | | |  |    | |  |      |  | |  |   |
   /  x x x x  /    x  x  /      x  /         /           / x x  x    x /  x      x  / x  /   /

   Q.          E.      S  S      S  S      S  S      S    Q      Q         S      S  E    Q
|------------------------------------------------------|-------------------------------------------|
|------------------------------------------------------|--------17b19-----17pb19r15----------------|
|-16----------16b17---16-16pb17-16-16pb17-16-16pb17-16-|-14-------------------------16---14\-------|
|------------------------------------------------------|-------------------------------------------|
|------------------------------------------------------|-------------------------------------------|
|------------------------------------------------------|-------------------------------------------|


 Verse 1
  D5                           C5
 4/4
  Gtr I
  E S S S  S E   S S S S Q     E S S S S  E    S S S S E  E
  | | | |  | |   | | | | |     | | | | |  |    | | | | |  |
  / x x x  x /   x x / x /     / x x x x  /    x x / x /  /

  Gtr II
  Q     E.     S S E   S Q     Q     E    S  S S E   S Q
|----------------------------|------------------------------|
|----------------------------|------------------------------|
|----------------------------|------------------------------|
|----------------------------|------------------------------|
|------------------5---x-5\--|-------------------3---x-3\---|
|--------------5s7-----------|-----------(3)-3s5------------|


  G5                         D5
  E S S S S E S S S S E +E   E S S S S E   S S S S E  +E
  | | | | | | | | | | |  |   | | | | | |   | | | | |   |
  / x x x x / x x / x /  /   / x x x x /   x x / x /   /

  W                          Q     E   S S S E   S Q
|--------------------------|-------------------------------|
|--------------------------|-------------------------------|
|--------------------------|-------------------------------|
|--------------------------|-------------------------------|
|--------------------------|-----------------5---x-5\------|
|--------------------------|-----------5-5s7---------------|


  D5                          C5
 4/4
  E S S S S E   S S S S Q     E S S S S E   S S S S E  E
  | | | | | |   | | | | |     | | | | | |   | | | | |  |
  / x x x x /   x x / x /     / x x x x /   x x / x /  /

  Q     E   S S S E   S Q     Q     E   S S S E   S Q
|---------------------------|----------------------------|
|---------------------------|----------------------------|
|---------------------------|----------------------------|
|---------------------------|----------------------------|
|-----------------5---x-5\--|-----------------3---x-3\---|
|-----------5-5s7-----------|-----------3-3s5------------|


  G5                         D5
  E S S S S E S S S S E +E   E S S S S E   S S S S E  +E
  | | | | | | | | | | |  |   | | | | | |   | | | | |   |
  / x x x x / x x / x /  /   / x x x x /   x x / x /   /

  W                          Q     E   S S S E   S Q
|--------------------------|-------------------------------|
|--------------------------|-------------------------------|
|--------------------------|-------------------------------|
|--------------------------|-------------------------------|
|--------------------------|-----------------5---x-5\------|
|--------------------------|-----------5-5s7---------------|


 Chorus
  D5                                  C5
 4/4
  E   S S S S E S S     S  S  Q       E   S S S S E S S     S  S  E   E
  |   | | | | | | |     |  |  |       |   | | | | | | |     |  |  |   |
  /   x x x x / x x     /  x  /       /   x x x x / x x     /  x  /   /

  S S S E   S E S E       +S  S S E   S S S E   S E S E       +S  S S E
|-----------------------------------|-----------------------------------|
|-----------------------------------|-----------------------------------|
|-----------------------------------|-----------------------------------|
|-----x-3---x-5-x-3b3.5---(3)-------|-----x-3---x-5-x-3b3.5---(3)-------|
|-3h5-------------------------5-3-5-|-3h5-------------------------5-3-5-|
|-----------------------------------|-----------------------------------|


  G5                                   D5
  E   S S S S E S S     S  S  E   +E   E   S S S S E S S     S  S  E   +E
  |   | | | | | | |     |  |  |    |   |   | | | | | | |     |  |  |    |
  /   x x x x / x x     /  x  /    /   /   x x x x / x x     /  x  /    /

  S S S E   S E S E       +S  S S  E   S S S E   S E S E       +S  S S  E
|------------------------------------|---------------------------------------|
|------------------------------------|---------------------------------------|
|------------------------------------|---------------------------------------|
|-----x-3---x-5-x-3b3.5---(3)--------|-----x-3---x-5-x-3b3.5---(3)-----------|
|-3h5-------------------------5-3--5-|-3h5-------------------------5-3--5----|
|------------------------------------|---------------------------------------|


  D5                                  C5
 4/4
  E   S S S S E S S     S  S  Q       E   S S S S E S S     S  S  E   E
  |   | | | | | | |     |  |  |       |   | | | | | | |     |  |  |   |
  /   x x x x / x x     /  x  /       /   x x x x / x x     /  x  /   /

  S S S E   S E S E       +S  S S E   S S S E   S E S E       +S  S S E
|-----------------------------------|-----------------------------------|
|-----------------------------------|-----------------------------------|
|-----------------------------------|-----------------------------------|
|-----x-3---x-5-x-3b3.5---(3)-------|-----x-3---x-5-x-3b3.5---(3)-------|
|-3h5-------------------------5-3-5-|-3h5-------------------------5-3-5-|
|-----------------------------------|-----------------------------------|
|
| W                                   W
|-----------------------------------|-----------------------------------|
|-----------------------------------|-----------------------------------|
|-----------------------------------|-----------------------------------|
|-----------------------------------|-----------------------------------|
|-----------------------------------|-----------------------------------|
|-----------------------------------|-----------------------------------|


  G5                                   D5
  E   S S S S E S S     S  S  E   +E   E   S S S S E S S     S  S   E    +E
  |   | | | | | | |     |  |  |    |   |   | | | | | | |     |  |   |     |
  /   x x x x / x x     /  x  /    /   /   x x x x / x x     /  x   /     /

  S S S E   S E S E       +S  S S  E   S S S E   S E S E       +S   S  S  E
|------------------------------------|-----------------------------------------|
|------------------------------------|-----------------------------------------|
|------------------------------------|-----------------------------------------|
|-----x-3---x-5-x-3b3.5---(3)--------|-----x-3---x-5-x-3b3.5---(3)-------------|
|-3h5-------------------------5-3--5-|-3h5--------------------------5--3--5----|
|------------------------------------|-----------------------------------------|
|
|                                      Gtr III
| W                                    H             Q              S  S  E
|------------------------------------|-----------------------------------------|
|------------------------------------|-----------------------------------15----|
|------------------------------------|-----------------------------14s16-------|
|------------------------------------|-----------------------------------------|
|------------------------------------|-----------------------------------------|
|------------------------------------|-----------------------------------------|


 Solo 2
  D5                                  C5
 4/4
  Gtr I
   E    S S S S E   S  S S S  Q        E    S   S  S S   E  S S  S    S E E
   |    | | | | |   |  | | |  |        |    |   |  | |   |  | |  |    | | |
   /    x x x x /   x  x / x  /        /    x   x  x x   /  x x  /    x / /

  Gtr III
   H               +Q         Q        S  E    +E.      +Q       Q.
|-----------------------------------|---------------------------------------|
|-17b19-----------(17)-------17b19r=|=15------------------------17b19r======|
|-----------------------------------|----17---(17)-----(17)-----------------|
|-----------------------------------|---------------------------------------|
|-----------------------------------|---------------------------------------|
|-----------------------------------|---------------------------------------|


  G5                                                          D5
   E      S  S S S  E    S  S  S      S  E        +E           E S S  S    S E  S      S  S S  E  +E
   |      |  | | |  |    |  |  |      |  |         |           | | |  |    | |  |      |  | |  |   |
   /      x  x x x  /    x  x  /      x  /         /           / x x  x    x /  x      x  / x  /   /

   S  S  +Q         E.      S  S      S  S      S  S      S    Q      Q         S      S  E    Q
|-----------------------------------------------------------|-----------------------------------------|
|-15--------------------------------------------------------|--------17b19-----17pb19r15--------------|
|----16-(16)-------16b17---16-16pb17-16-16pb17-16-16pb17-16-|-14-------------------------16---14\-----|
|-----------------------------------------------------------|-----------------------------------------|
|-----------------------------------------------------------|-----------------------------------------|
|-----------------------------------------------------------|-----------------------------------------|


 Verse 2
  D5                           C5
 4/4
  Gtr I
  E S S S  S E   S S S S Q     E S S S S  E    S S S S E  E
  | | | |  | |   | | | | |     | | | | |  |    | | | | |  |
  / x x x  x /   x x / x /     / x x x x  /    x x / x /  /

  Gtr II
  Q     E.     S S E   S Q     Q     E    S  S S E   S Q
|----------------------------|------------------------------|
|----------------------------|------------------------------|
|----------------------------|------------------------------|
|----------------------------|------------------------------|
|------------------5---x-5\--|-------------------3---x-3\---|
|--------------5s7-----------|-----------(3)-3s5------------|


  G5                         D5
  E S S S S E S S S S E +E   E S S S S E   S S S S E  +E
  | | | | | | | | | | |  |   | | | | | |   | | | | |   |
  / x x x x / x x / x /  /   / x x x x /   x x / x /   /

  W                          Q     E   S S S E   S Q
|--------------------------|-------------------------------|
|--------------------------|-------------------------------|
|--------------------------|-------------------------------|
|--------------------------|-------------------------------|
|--------------------------|-----------------5---x-5\------|
|--------------------------|-----------5-5s7---------------|


  D5                          C5
 4/4
  E S S S S E   S S S S Q     E S S S S E   S S S S E  E
  | | | | | |   | | | | |     | | | | | |   | | | | |  |
  / x x x x /   x x / x /     / x x x x /   x x / x /  /

  Q     E   S S S E   S Q     Q     E   S S S E   S Q
|---------------------------|----------------------------|
|---------------------------|----------------------------|
|---------------------------|----------------------------|
|---------------------------|----------------------------|
|-----------------5---x-5\--|-----------------3---x-3\---|
|-----------5-5s7-----------|-----------3-3s5------------|
|
| W                           W
|---------------------------|----------------------------|
|---------------------------|----------------------------|
|---------------------------|----------------------------|
|---------------------------|----------------------------|
|---------------------------|----------------------------|
|---------------------------|----------------------------|


  G5                         D5
  E S S S S E S S S S E +E   E S S  S    S E       S  S  S S  E  +E
  | | | | | | | | | | |  |   | | |  |    | |       |  |  | |  |   |
  / x x x x / x x / x /  /   / x x  x    x /       x  x  / x  /   /

  W                          Q      E      S  S    S  E    S  Q
|--------------------------|------------------------------------------|
|--------------------------|------------------------------------------|
|--------------------------|------------------------------------------|
|--------------------------|------------------------------------------|
|--------------------------|--------------------------5----x--5\------|
|--------------------------|---------------5--5s===7------------------|
|
|                              Gtr III
| W                          Q      E.        E       S  E    Q
|--------------------------|------------------------------------------|
|--------------------------|-------17b19-----17b19r==15---------------|
|--------------------------|----------------------------16---14\------|
|--------------------------|------------------------------------------|
|--------------------------|------------------------------------------|
|--------------------------|------------------------------------------|


 Chorus
  D5                                  C5
 4/4
  E   S S S S E S S     S  S  Q       E   S S S S E S S     S  S  E   E
  |   | | | | | | |     |  |  |       |   | | | | | | |     |  |  |   |
  /   x x x x / x x     /  x  /       /   x x x x / x x     /  x  /   /

  S S S E   S E S E       +S  S S E   S S S E   S E S E       +S  S S E
|-----------------------------------|-----------------------------------|
|-----------------------------------|-----------------------------------|
|-----------------------------------|-----------------------------------|
|-----x-3---x-5-x-3b3.5---(3)-------|-----x-3---x-5-x-3b3.5---(3)-------|
|-3h5-------------------------5-3-5-|-3h5-------------------------5-3-5-|
|-----------------------------------|-----------------------------------|


  G5                                   D5
  E   S S S S E S S     S  S  E   +E   E   S S S S E S S     S  S  E   +E
  |   | | | | | | |     |  |  |    |   |   | | | | | | |     |  |  |    |
  /   x x x x / x x     /  x  /    /   /   x x x x / x x     /  x  /    /

  S S S E   S E S E       +S  S S  E   S S S E   S E S E       +S  S S  E
|------------------------------------|---------------------------------------|
|------------------------------------|---------------------------------------|
|------------------------------------|---------------------------------------|
|-----x-3---x-5-x-3b3.5---(3)--------|-----x-3---x-5-x-3b3.5---(3)-----------|
|-3h5-------------------------5-3--5-|-3h5-------------------------5-3--5----|
|------------------------------------|---------------------------------------|


  D5                                  C5
 4/4
  E   S S S S E S S     S  S  Q       E   S S S S E S S     S  S  E   E
  |   | | | | | | |     |  |  |       |   | | | | | | |     |  |  |   |
  /   x x x x / x x     /  x  /       /   x x x x / x x     /  x  /   /

  S S S E   S E S E       +S  S S E   S S S E   S E S E       +S  S S E
|-----------------------------------|-----------------------------------|
|-----------------------------------|-----------------------------------|
|-----------------------------------|-----------------------------------|
|-----x-3---x-5-x-3b3.5---(3)-------|-----x-3---x-5-x-3b3.5---(3)-------|
|-3h5-------------------------5-3-5-|-3h5-------------------------5-3-5-|
|-----------------------------------|-----------------------------------|


  G5                                   D5
  E   S S S S E S S     S  S  E   +E   E   S S S S E S S     S  S  E   +E
  |   | | | | | | |     |  |  |    |   |   | | | | | | |     |  |  |    |
  /   x x x x / x x     /  x  /    /   /   x x x x / x x     /  x  /    /

  S S S E   S E S E       +S  S S  E   S S S E   S E S E       +S  S S  E
|------------------------------------|---------------------------------------|
|------------------------------------|---------------------------------------|
|------------------------------------|---------------------------------------|
|-----x-3---x-5-x-3b3.5---(3)--------|-----x-3---x-5-x-3b3.5---(3)-----------|
|-3h5-------------------------5-3--5-|-3h5-------------------------5-3--5----|
|------------------------------------|---------------------------------------|


 Interlude
  W          W          W          W
|----------|----------|----------|----------|
|----------|----------|----------|----------|
|----------|----------|----------|----------|
|----------|----------|----------|----------|
|----------|----------|----------|----------|
|----------|----------|----------|----------|


  W          W          W          W
|----------|----------|----------|------|
|----------|----------|----------|------|
|----------|----------|----------|------|
|----------|----------|----------|------|
|----------|----------|----------|------|
|----------|----------|----------|------|


 Chorus
  D5                                  C5
 4/4
  Gtr I
  E   S S S S E S S     S  S  Q       E   S S S S E S S     S  S  E   E
  |   | | | | | | |     |  |  |       |   | | | | | | |     |  |  |   |
  /   x x x x / x x     /  x  /       /   x x x x / x x     /  x  /   /

  Gtr II
  S S S E   S E S E       +S  S S E   S S S E   S E S E       +S  S S E
|-----------------------------------|-----------------------------------|
|-----------------------------------|-----------------------------------|
|-----------------------------------|-----------------------------------|
|-----x-3---x-5-x-3b3.5---(3)-------|-----x-3---x-5-x-3b3.5---(3)-------|
|-3h5-------------------------5-3-5-|-3h5-------------------------5-3-5-|
|-----------------------------------|-----------------------------------|


  G5                                   D5
  E   S S S S E S S     S  S  E   +E   E   S S S S E S S     S  S  E   +E
  |   | | | | | | |     |  |  |    |   |   | | | | | | |     |  |  |    |
  /   x x x x / x x     /  x  /    /   /   x x x x / x x     /  x  /    /

  S S S E   S E S E       +S  S S  E   S S S E   S E S E       +S  S S  E
|------------------------------------|---------------------------------------|
|------------------------------------|---------------------------------------|
|------------------------------------|---------------------------------------|
|-----x-3---x-5-x-3b3.5---(3)--------|-----x-3---x-5-x-3b3.5---(3)-----------|
|-3h5-------------------------5-3--5-|-3h5-------------------------5-3--5----|
|------------------------------------|---------------------------------------|


  D5                                  C5
 4/4
  E   S S S S E S S     S  S  Q       E   S S S S E S S     S  S  E   E
  |   | | | | | | |     |  |  |       |   | | | | | | |     |  |  |   |
  /   x x x x / x x     /  x  /       /   x x x x / x x     /  x  /   /

  S S S E   S E S E       +S  S S E   S S S E   S E S E       +S  S S E
|-----------------------------------|-----------------------------------|
|-----------------------------------|-----------------------------------|
|-----------------------------------|-----------------------------------|
|-----x-3---x-5-x-3b3.5---(3)-------|-----x-3---x-5-x-3b3.5---(3)-------|
|-3h5-------------------------5-3-5-|-3h5-------------------------5-3-5-|
|-----------------------------------|-----------------------------------|


  G5                                   D5
  E   S S S S E S S     S  S  E   +E   E   S S S S E S S     S S E   +E
  |   | | | | | | |     |  |  |    |   |   | | | | | | |     | | |    |
  /   x x x x / x x     /  x  /    /   /   x x x x / x x     / x /    /

  S S S E   S E S E       +S  S S  E   S S S E   S E S E       S S S  E
|------------------------------------|-------------------------------------|
|------------------------------------|-------------------------------------|
|------------------------------------|--------------------------------5----|
|-----x-3---x-5-x-3b3.5---(3)--------|-----x-3---x-5-x-3b3.5---x---x--5----|
|-3h5-------------------------5-3--5-|-3h5---------------------x-5-x--3----|
|------------------------------------|-------------------------------------|


 Outro
  D5                                        C5
 4/4
  Gtr I
   E    S S E S S   S  E        S  Q         E  S S E S S  S    E S  E     E
   |    | | | | |   |  |        |  |         |  | | | | |  |    | |  |     |
   /    x x / x x   x  /        x  /         /  x x / x x  x    / x  /     /

  Gtr II
   H.                              Q         H.                      Q
|-----------------------------------------|----------------------------------|
|-----------------------------------------|----------------------------------|
|--7-------------------------------7s=====|==5-----------------------5-------|
|--7-------------------------------7s=====|==5-----------------------5s======|
|--5-------------------------------5s=====|==3-----------------------3s======|
|-----------------------------------------|----------------------------------|
|
| Gtr III
|  H               +E     E        Q         H             Q         S  E.
|-----------------------------------------|----------------------------------|
|-17b19-----------(17)---17pb19---17pb19r=|=17------------17b19r====17p15----|
|-----------------------------------------|----------------------------------|
|-----------------------------------------|----------------------------------|
|-----------------------------------------|----------------------------------|
|-----------------------------------------|----------------------------------|


  G5X                                       D5
   E  S S   E  S  S    S E    S  E      E    E  S S  E    S S S E    S  E     E
   |  | |   |  |  |    | |    |  |      |    |  | |  |    | | | |    |  |     |
   /  x x   /  x  x    x /    x  /      /    /  x x  /    x x x /    x  /     /

   H.                            Q           H.                         E.      S
|-----------------------------------------|---------------------------------------|
|-----------------------------------------|---------------------------------------|
|-------------------------------12s=======|==7--------------------------7s======5-|
|-12----------------------------12s=======|==7--------------------------7s======5-|
|-10----------------------------10s=======|==5--------------------------5s======3-|
|-----------------------------------------|---------------------------------------|
|
|  Q       +E.    E.        E    E      E    Q       Q.            E    Q
|-----------------------------------------|---------------------------------------|
|-----------------------------------------|---------17b19---------17---17pb19r====|
|-16------(16)---16b17-----16---16pb17-16-|-14------------------------------------|
|-----------------------------------------|---------------------------------------|
|-----------------------------------------|---------------------------------------|
|-----------------------------------------|---------------------------------------|


  D5                                                   C5
 4/4
   E    S S   E  S S   S  E        S     Q              E  S S   E  S S  S    E         S  E     E
   |    | |   |  | |   |  |        |     |              |  | |   |  | |  |    |         |  |     |
   /    x x   /  x x   x  /        x     /              /  x x   /  x x  x    /         x  /     /

   H.                                    Q              H.                                 Q
|----------------------------------------------------|---------------------------------------------|
|----------------------------------------------------|---------------------------------------------|
|--7-------------------------------------7s==========|==5----------------------------------5-------|
|--7-------------------------------------7s==========|==5----------------------------------5s======|
|--5-------------------------------------5s==========|==3----------------------------------3s======|
|----------------------------------------------------|---------------------------------------------|
|
|  H                  +E     E           Q              H                Q                 S  E.
|----------------------------------------------------|---------------------------------------------|
|-17b19--------------(17)---17pb19------17pb19r======|=17---------------17b19r============17p15----|
|----------------------------------------------------|---------------------------------------------|
|----------------------------------------------------|---------------------------------------------|
|----------------------------------------------------|---------------------------------------------|
|----------------------------------------------------|---------------------------------------------|
|
| Gtr IV
|                            |--------3---------|
|  Q         +Q.             E        E         E  E    Q       +Q.              E         Q
|----------------------------------------------------|---------------------------------------------|
|-15--------(15)------------13-------12--------13-12s|=10------(10)--------------------------------|
|----------------------------------------------------|--------------------------12pb14====12r======|
|----------------------------------------------------|---------------------------------------------|
|----------------------------------------------------|---------------------------------------------|
|----------------------------------------------------|---------------------------------------------|


  G5X                                                    D5
   E       S  S   E    S   S    S E        S  E      E    E  S S  E     S S  S    E     S  E         E
   |       |  |   |    |   |    | |        |  |      |    |  | |  |     | |  |    |     |  |         |
   /       x  x   /    x   x    x /        x  /      /    /  x x  /     x x  x    /     x  /         /

   H.                                         Q           H.                               E.          S
|------------------------------------------------------|----------------------------------------------------|
|------------------------------------------------------|----------------------------------------------------|
|--------------------------------------------12s=======|==7--------------------------------7s==========5----|
|-12-----------------------------------------12s=======|==7--------------------------------7s==========5----|
|-10-----------------------------------------10s=======|==5--------------------------------5s==========3----|
|------------------------------------------------------|----------------------------------------------------|
|
|  Q             +E.       E.        E        E      E    Q       E     E    E       E     E         E
|------------------------------------------------------|----------------------------------------------------|
|------------------------------------------------------|---------17b19-17---17b19---17----17b19-----17------|
|-16------------(16)------16b17-----16-------16pb17-16-|-14-------------------------------------------------|
|------------------------------------------------------|----------------------------------------------------|
|------------------------------------------------------|----------------------------------------------------|
|------------------------------------------------------|----------------------------------------------------|
|
|  S   S  +Q          +Q             E        E      E    Q       Q.                 S  S  S     E.
|------------------------------------------------------|----------------------------------------------------|
|------------------------------------------------------|----------------------------------------------------|
|-10--12-(12)--------(12)-----------12pb13r==10--------|-12------11-----------------------10----------------|
|---------------------------------------------------12-|----------------------------------------12----------|
|------------------------------------------------------|----------------------------10s12-------------------|
|------------------------------------------------------|----------------------------------------------------|


  D5                                                   C5
 4/4
   E       S S  E  S S   S  E         S  Q              E       S    S   E     S S   S    E      S     E     E
   |       | |  |  | |   |  |         |  |              |       |    |   |     | |   |    |      |     |     |
   /       x x  /  x x   x  /         x  /              /       x    x   /     x x   x    /      x     /     /

   H.                                    Q              H.                                             Q
|----------------------------------------------------|--------------------------------------------------------------|
|----------------------------------------------------|--------------------------------------------------------------|
|--7-------------------------------------7s==========|==5----------------------------------------------5------------|
|--7-------------------------------------7s==========|==5----------------------------------------------5s===========|
|--5-------------------------------------5s==========|==3----------------------------------------------3s===========|
|----------------------------------------------------|--------------------------------------------------------------|
|
|  H                    +E     E         Q              H                            Q                 S  E.
|----------------------------------------------------|--------------------------------------------------------------|
|-17b19----------------(17)---17pb19----17pb19r======|=17---------------------------17b19r============17p15---------|
|----------------------------------------------------|--------------------------------------------------------------|
|----------------------------------------------------|--------------------------------------------------------------|
|----------------------------------------------------|--------------------------------------------------------------|
|----------------------------------------------------|--------------------------------------------------------------|
|
|  S     S E    Q.             S      S  E      S  S    S   S   S    S   Q          +E       +S.    E.          +S.
|----------8---10------------------------------------|--------------------------------------------------------------|
|--8s===10--------------------13-----12-13-----12-13-|-12--13-(12)-(13)---------------------------------------------|
|----------------------------------------------------|------------------12b14======(12)-----(12)---12r=========(12)-|
|----------------------------------------------------|--------------------------------------------------------------|
|----------------------------------------------------|--------------------------------------------------------------|
|----------------------------------------------------|--------------------------------------------------------------|


  G5X                                                     D5
   E  S S   E    S  S  S      E         S  E          E    E  S S   E     S S  S    E     S  E         E
   |  | |   |    |  |  |      |         |  |          |    |  | |   |     | |  |    |     |  |         |
   /  x x   /    x  x  x      /         x  /          /    /  x x   /     x x  x    /     x  /         /

   H.                                      Q               H.                                E.          S
|-------------------------------------------------------|----------------------------------------------------|
|-------------------------------------------------------|----------------------------------------------------|
|-----------------------------------------12s===========|==7---------------------------------7s==========5---|
|-12--------------------------------------12s===========|==7---------------------------------7s==========5---|
|-10--------------------------------------10s===========|==5---------------------------------5s==========3---|
|-------------------------------------------------------|----------------------------------------------------|
|
|  Q        E.      S  S      S  S      S  S      S   E    Q        E     E    E       E     E         E
|-------------------------------------------------------|----------------------------------------------------|
|-------------------------------------------------------|----------17b19-17---17b19---17----17b19-----17-----|
|-16-------16b17---16-16pb17-16-16pb17-16-16pb17-16--16-|-14-------------------------------------------------|
|-------------------------------------------------------|----------------------------------------------------|
|-------------------------------------------------------|----------------------------------------------------|
|-------------------------------------------------------|----------------------------------------------------|
|
|  Q       +Q.                   E.               E.       Q       +Q.                 S  S  S     E.
|-------------------------------------------------------|----------------------------------------------------|
|-------------------------------------------------------|----------------------------------------------------|
|-12------(12)------------------12pb14r==========12-----|-12------(12)----------------------10---------------|
|-------------------------------------------------------|-----------------------------------10----12---------|
|-------------------------------------------------------|-----------------------------10s12------------------|
|-------------------------------------------------------|----------------------------------------------------|


  D5
 4/4
   E       S S  E  S S   S  E         S  Q
   |       | |  |  | |   |  |         |  |
   /       x x  /  x x   x  /         x  /

   H.                                    Q
|-------------------------------------------------------|
|-------------------------------------------------------|
|--7-------------------------------------7s=============|
|--7-------------------------------------7s=============|
|--5-------------------------------------5s=============|
|-------------------------------------------------------|
|
|  H                    +E     E         Q
|-------------------------------------------------------|
|-17b19----------------(17)---17pb19----17pb19r=========|
|-------------------------------------------------------|
|-------------------------------------------------------|
|-------------------------------------------------------|
|-------------------------------------------------------|
|
|  S     S E    Q.             S      E         S  S  S
|----------8---10---------------------------------------|
|--8s===10--------------------13-----12--------13-12-13s|
|-------------------------------------------------------|
|-------------------------------------------------------|
|-------------------------------------------------------|
|-------------------------------------------------------|


  C5                                                      G5X
   E      S S  E      S     S   S    E   S  E         E    E S S E S S H      W
   |      | |  |      |     |   |    |   |  |         |    | | | | | |
   /      x x  /      x     x   x    /   x  /         /    / x x / x x

   H.                                       Q              H           H      W
|-------------------------------------------------------|-------------------|------*|
|-------------------------------------------------------|-------------------|------*|
|--5----------------------------------------5-----------|-------------------|------*|
|--5----------------------------------------5s==========|=12----------------|------*|
|--3----------------------------------------3s==========|=10----------------|------*|
|-------------------------------------------------------|-------------------|------*|
|
|  H                            Q           S      E.      H           H      W
|-------------------------------------------------------|-------------------|------*|
|-17---------------------------17b19r======17p====15----|-------------------|------*|
|-------------------------------------------------------|-16----------------|------*|
|-------------------------------------------------------|-------------------|------*|
|-------------------------------------------------------|-------------------|------*|
|-------------------------------------------------------|-------------------|------*|
|
|  S   E.      E     +E        +E      E    Q              H           H      W
|-------------------------------------------------------|-------------------|------*|
|-12--10------------------------------------------------|-------------------|------*|
|-------------12b14r(12)b14r==(12)---------12pb14r======|=12----------------|------*|
|-------------------------------------------------------|-------------------|------*|
|-------------------------------------------------------|-------------------|------*|
|-------------------------------------------------------|-------------------|------*|


Duration Legend
---------------
W - whole; H - half; Q - quarter; E - 8th; S - 16th; T - 32nd; X - 64th; a - acciaccatura
+ - note tied to previous; . - note dotted; .. - note double dotted
Uncapitalized letters represent notes that are staccato (1/2 duration)
Irregular groupings are notated above the duration line
Duration letters will always appear directly above the note/fret number it represents the
duration for.  Duration letters with no fret number below them represent rests.  Multi-
bar rests are notated in the form Wxn, where n is the number of bars to rest for.  Low
melody durations appear below the staff

Tablature Legend
----------------
 h   - hammer-on
 p   - pull-off
 b   - bend
 pb  - pre-bend
 r   - bend release (if no number after the r, then release immediately)
 /\  - slide into or out of (from/to "nowhere")
 s   - legato slide
 S   - shift slide
<n>  - natural harmonic
[n]  - artificial harmonic
n(n) - tapped harmonic
 ~   - vibrato
 tr  - trill
 T   - tap
 TP  - trem. picking
 PM  - palm muting
\n/  - tremolo bar dip; n = amount to dip
 \n  - tremolo bar down
 n/  - tremolo bar up
/n\  - tremolo bar inverted dip
 =   - hold bend; also acts as connecting device for hammers/pulls
 <>  - volume swell (louder/softer)
 x   - on rhythm slash represents muted slash
 o   - on rhythm slash represents single note slash

Misc Legend
-----------
 |  - bar
||  - double bar
||o - repeat start
o|| - repeat end
*|  - double bar (ending)
 :  - bar (freetime)
 $  - Segno
 &  - Coda
Tempo markers - <E/E./Q/Q./H/H.> = BPM(8/16=s8/s16), where s8 = swing 8ths, s16 = swing 16ths


***************************************************************************************
* Generated using Power Tab Editor by Brad Larsen - http://powertab.guitarnetwork.org *
***************************************************************************************
comments
We did not receive enough feedback on this tab! Please rate:
print report bad tab
1 2 3 4 5
I want to post or [tab]
guest
You may want to rate the tab now too:
select rating
Please do not post tabs as comments. Select "correction" instead!