Oops, an error
Loading. Please wait.

Barbie Girl Tab

by Aqua
ver3
ver3

Whole song

Interactive

More versions @911Tabs.com
9,100 views 24 this week
no commentswrite comment
1 2 3 4 5
excellent!
x 1
Autoscroll
+/-
esc
set tempo
stop
Contributor
Difficulty
Tabbers playing skills
novice
intermediate ++
WARNING: You are trying to view
                                    content from Ultimate-Guitar.com
                                    in an unauthorized application,
                                    which is prohibited.

                                    Please use an official Ultimate
                                    Guitar Tabs application for iPhone,
                                    iPad or Android to access legitimate
                                    chords, guitar, bass, and drum tabs
                                    from Ultimate-Guitar.com database.

                                    Type "ultimate guitar tabs" in Apple
                                    App Store's or Android Market's
                                    search to find the application.
-------------------------------------------------------------------------------
                             BARBIE GIRL - Aqua
-------------------------------------------------------------------------------
Tabbed by: metallhead
Email: homesticky@gmail.com

Tuning: E A D G B E



Gtr I (E A D G B E) - 'Voice 1'
Gtr II (E A D G B E) - 'Voice 2'
Gtr III (E A D G B E) - 'Guitar'
Gtr IV (E A D G B E) - 'Strings'

  Q=126
 4/4
  Gtr I
  E E E E  Q  Q     E  E  E  E  Q   E E   Q  E  E  Q   Q    Q   E E Q  Q
|-4---4-9--------|----------------------|-----------------|----------------|
|---5-----10-----|----------12----------|-----------------|---------9--7---|
|----------------|-11----11----13--11-9-|----9----11------|----11-9--------|
|----------------|----13----------------|------11-----11--|----------------|
|----------------|----------------------|-----------------|----------------|
|----------------|----------------------|-----------------|----------------|


   E    E   E E    Q       Q      E     E    E  E    Q      E E
|-------------9----------------|--------------------------------|
|--9--------9-----10-----------|---------------12---------------|
|-------9----------------------|-11---------11------13-----11-9-|
|------------------------------|-------13-----------------------|
|------------------------------|--------------------------------|
|------------------------------|--------------------------------|
|
| Gtr III
|  S  E   S E S S  S  S E  E E    S  E    S  E  S S  S S E  E E
|--9------9---9-------9----9---|--7-------7-----7------7----7---|
|--9------9---9------10---10---|--7-------7-----7------9----9---|
|--9------9---9------11---11---|--8-------8-----8------9----9---|
|------------------------------|--------------------------------|
|------------------------------|--------------------------------|
|------------------------------|--------------------------------|
|
| Gtr IV
|  Q.         E    H              Q.            E    H
|--9---------------9-----------|--7------------------7----------|
|--9--------------10-----------|--7------------------9----------|
|--9--------------11-----------|--8------------------9----------|
|-11--------------11-----------|--9------------------9----------|
|------------------------------|--------------------------------|
|------------------------------|--------------------------------|


   E   S S E  E    Q        Q
|--------------------------------|
|--------------------------------|
|------9---9------11-------------|
|------------11------------11----|
|--------------------------------|
|--------------------------------|
|
|  S E   S E  S S  S   S E  E E
|--9-----9----9--------9----9----|
|--9-----9----9-------10---10----|
|--9-----9----9-------11---11----|
|--------------------------------|
|--------------------------------|
|--------------------------------|
|
|  H               Q.         E
|--9---------------9-------------|
|--9--------------10-------------|
|--9--------------11-------------|
|-11--------------11-------------|
|--------------------------------|
|--------------------------------|


   S S  S S  E S S Q     Q    W
|---------------------------|-------------------------|
|------------------9-----7--|-------------------------|
|-11---11---11-9------------|-------------------------|
|---------------------------|-------------------------|
|---------------------------|-------------------------|
|---------------------------|-------------------------|
|
| Gtr II
|  W                          S S E E S S S S E E S S
|---------------------------|-------------------------|
|---------------------------|-5---5-------5---5-------|
|---------------------------|-------6-4---------6-4---|
|---------------------------|-------------------------|
|---------------------------|-------------------------|
|---------------------------|-------------------------|
|
| Gtr III
|  S E    S  E S S S S E Q    E   E Q     H
|--7------7----7-----7---7--|-------------------------|
|--7------7----7-----7---7--|-9-----------------------|
|--9------9----9-----8---8--|-9-----------------------|
|---------------------------|-9-----------------------|
|---------------------------|-------------------------|
|---------------------------|-------------------------|


   E   E    E  E    Q       Q
|--------------9----------------|
|--9--------9------10-----------|
|------9------------------------|
|-------------------------------|
|-------------------------------|
|-------------------------------|
|
|  W
|-------------------------------|
|-------------------------------|
|-------------------------------|
|-------------------------------|
|-------------------------------|
|-------------------------------|
|
|  S E    S E  S S  S  S E  Q
|-------------------------------|
|--9------9----9------10---10---|
|--9------9----9------11---11---|
|-11-----11---11------11---11---|
|-------------------------------|
|-------------------------------|


   E    E     E  E    Q      E E
|--------------------------------|
|---------------12---------------|
|-11---------11------13-----11-9-|
|------13------------------------|
|--------------------------------|
|--------------------------------|
|
| Gtr III
|  S E     S  E  S S  S S E  Q
|--------------------------------|
|-----------------------9----9---|
|-11------11----11------9----9---|
|-13------13----13------9----9---|
|-14------14----14---------------|
|--------------------------------|
|
| Gtr IV
|  H                  H
|--------------------------------|
|---------------------9----------|
|-11------------------9----------|
|-13------------------9----------|
|-14-----------------------------|
|--------------------------------|


   Q       E  E    Q       Q     Q        E  E    Q       Q
|-----------------------------|-------------------------------|
|-----------------------------|-------------------9-------7---|
|----------9------11----------|----------11--9----------------|
|------------11-----------11--|-------------------------------|
|-----------------------------|-------------------------------|
|-----------------------------|-------------------------------|
|
|  S  E  S E  S S  S  S E  Q     S  E  S  E  S S  S  S E  Q
|-----------------------------|-------------------------------|
|--9-----9----9------10---10--|-12----12----12------12---12---|
|--9-----9----9------11---11--|-11----11----11------11---11---|
|-11----11---11------11---11--|-14----14----14------13---13---|
|-----------------------------|-------------------------------|
|-----------------------------|-------------------------------|
|
|  Q.         E    H             Q.          E    H
|-----------------------------|-------------------------------|
|--9--------------10----------|-------------------------------|
|--9--------------11----------|-11---------------11-----------|
|-11--------------11----------|-14---------------13-----------|
|-----------------------------|-14---------------14-----------|
|-----------------------------|-------------------------------|


   E   E    E  E    Q       Q     E    E     E  E    Q      E   E
|--------------9---------------|------------------------------------|
|--9--------9------10----------|---------------12-------------------|
|------9-----------------------|-11---------11------13-----11---9---|
|------------------------------|------13----------------------------|
|------------------------------|------------------------------------|
|------------------------------|------------------------------------|
|
|  S E    S E  S S  S  S E  Q     S E     S  E  S S  S S E  S E   S
|------------------------------|------------------------------------|
|--9------9----9------10---10--|-----------------------9----9-------|
|--9------9----9------11---11--|-11------11----11------9----9-9-----|
|-11-----11---11------11---11--|-13------13----13------9----9-------|
|------------------------------|-14------14----14-------------------|
|------------------------------|------------------------------------|
|
|  H                H             H                  H
|-12---------------14----------|-11-----------------12--------------|
|--9---------------------------|--0------------------0--------------|
|--9---------------11----------|-11---------------------------------|
|-11---------------11----------|-13-----------------14--------------|
|------------------12----------|--------------------11--------------|
|------------------------------|------------------------------------|


   E   S  S E  E    Q       Q
|--------------------------------|
|--------------------------------|
|------9----9------11------------|
|-------------11-----------11----|
|--------------------------------|
|--------------------------------|
|
|  S E    S E  S S  S  S E  E E
|--------------------------------|
|--9------9----9------10---10----|
|--9------9----9------11---11----|
|-11-----11---11------11---11----|
|--------------------------------|
|--------------------------------|
|
|  H                H
|-16-----------------------------|
|------------------19------------|
|--------------------------------|
|-14---------------16------------|
|-16---------------16------------|
|-16---------------17------------|


   S S  S  S  E  S S  Q       Q     H               E   E   E    E
|--------------------------------|---------------------------------|
|---------------------9-------7--|--5-------------------5---7----9-|
|-11---11----11--9---------------|---------------------------------|
|--------------------------------|---------------------------------|
|--------------------------------|---------------------------------|
|--------------------------------|---------------------------------|
|
|  S E     S  E  S S  S  S E  Q     S E  S E  S S   E   S S S  S E
|--------------------------------|---------------------------------|
|-12------12----12------12---12--|---------------------------------|
|-11------11----11------11---11--|--9----9----9---------9------9---|
|-14------14----14------13---13--|-11---11---11--------11-----11---|
|--------------------------------|-11---11---11--------11-----11---|
|--------------------------------|---------------------------------|
|
|  H                  H             H              +Q.           E
|--------------------------------|---------------------------------|
|--------------------------------|---------------------------------|
|-16-----------------------------|---------------------------------|
|-16-----------------16----------|-14-------------(14)-------------|
|-19-----------------18----------|-16-------------(16)-------------|
|-19-----------------19----------|-16-------------(16)-------------|


  +E    E    E  E    +E   E     E     E
|---------------------------------------|
|-(9)--------7--9----(9)--------7-----9-|
|-------9-----------------9-------------|
|---------------------------------------|
|---------------------------------------|
|---------------------------------------|
|
|  S  E    S E  S S   E   S S   S   S E
|---------------------------------------|
|---------------------------------------|
|--9-------9----9---------9---------9---|
|-11------11---11--------11--------11---|
|-11------11---11--------11--------11---|
|---------------------------------------|
|
|  H                 +Q        +S   S E
|---------------------------------------|
|---------------------------------------|
|---------------------------------------|
|-14----------------(14)------(14)------|
|-16----------------(16)------(16)------|
|-16----------------(16)------(16)------|


  +E     E    E  E   +E   E   E    E   +E    E    E  E   +S  S  E   E    E
|------------------------------------|-------------------------------------|
|-(9)---10----9--7---(7)-----------7-|-(7)-----------7---(7)----7---9----7-|
|-------------------------8---9------|-------8----9------------------------|
|------------------------------------|-------------------------------------|
|------------------------------------|-------------------------------------|
|------------------------------------|-------------------------------------|
|
| Gtr II
|  W                                    W
|------------------------------------|-------------------------------------|
|------------------------------------|-------------------------------------|
|------------------------------------|-------------------------------------|
|------------------------------------|-------------------------------------|
|------------------------------------|-------------------------------------|
|------------------------------------|-------------------------------------|
|
| Gtr III
|  S  E     S E  S S  E   S S S  S E    S  E    S E  S S  E     S S S  S E
|------------------------------------|-------------------------------------|
|------------------------------------|-------------------------------------|
|-11-------11---11-------11-----11---|-11------11---11---------11-----11---|
|-11-------11---11-------11-----11---|-13------13---13---------13-----13---|
|-12-------12---12-------12-----12---|-14------14---14---------14-----14---|
|------------------------------------|-------------------------------------|


  +S  S E    +Q       H
|-------------------------------------|
|-(7)---5----(5)----------------------|
|-------------------------------------|
|-------------------------------------|
|-------------------------------------|
|-------------------------------------|
|
|  H                  E  E   E    E
|-------------------------------------|
|------------------------5---7----9---|
|-------------------------------------|
|-------------------------------------|
|-------------------------------------|
|-------------------------------------|
|
|  S  E    S  E   S S E  S S S  S E
|-------------------------------------|
|-------------------------------------|
|--9-------9------9------9------9-----|
|-11------11-----11-----11-----11-----|
|-11------11-----11-----11-----11-----|
|-------------------------------------|


  Gtr II
  +E    S  S S S  E   +E   S S S  S E
|-------------------------------------|
|-(9)--------7----9---(9)------7----9-|
|-------9------------------9----------|
|-------------------------------------|
|-------------------------------------|
|-------------------------------------|
|
| Gtr III
|  S  E    S E    S S  E   S S S  S E
|-------------------------------------|
|-------------------------------------|
|--9-------9------9--------9------9---|
|-11------11-----11-------11-----11---|
|-11------11-----11-------11-----11---|
|-------------------------------------|
|
| Gtr IV
|  W
|-12----------------------------------|
|-------------------------------------|
|-------------------------------------|
|-------------------------------------|
|-------------------------------------|
|-------------------------------------|


  +E     S  S S S  E    +E   E   S  S E   +E    E    E  E   +S  S  E   S  S E
|---------------------------------------|-------------------------------------|
|-(9)---10----9----7----(7)-----------7-|-(7)-----------7---(7)----7---9----7-|
|----------------------------8---9------|-------8----9------------------------|
|---------------------------------------|-------------------------------------|
|---------------------------------------|-------------------------------------|
|---------------------------------------|-------------------------------------|
|
|  S  E     S E    S S   E   S S S  S E    S  E    S E  S S  E     S S S  S E
|---------------------------------------|-------------------------------------|
|---------------------------------------|-------------------------------------|
|-11-------11-----11--------11-----11---|-11------11---11---------11-----11---|
|-11-------11-----11--------11-----11---|-13------13---13---------13-----13---|
|-12-------12-----12--------12-----12---|-14------14---14---------14-----14---|
|---------------------------------------|-------------------------------------|
|
|  H                    +Q.           E    H                 H
|-14-------------------(14)-------------|-------------------11----------------|
|---------------------------------------|-------------------------------------|
|-11-------------------(11)-------------|-11----------------------------------|
|-11-------------------(11)-------------|-13----------------------------------|
|-12-------------------(12)-------------|-14----------------------------------|
|---------------------------------------|-------------------------------------|


  Gtr I
   H                  E  E   E    E   +Q.         E   E  E    E     E
|------------------------4---5----7-|-(7)----------------9------------|
|-----------------------------------|------------------------10----12-|
|-----------------------------------|---------------------------------|
|-----------------------------------|---------------------------------|
|-----------------------------------|---------------------------------|
|-----------------------------------|---------------------------------|
|
| Gtr II
| +E    E    +Q       H                W
|-----------------------------------|---------------------------------|
|-(7)---5----(5)--------------------|---------------------------------|
|-----------------------------------|---------------------------------|
|-----------------------------------|---------------------------------|
|-----------------------------------|---------------------------------|
|-----------------------------------|---------------------------------|
|
| Gtr III
|  S  E    S  E   S S E  S S S  S E    S  E  S E  S S E  S S  S  S  E
|-----------------------------------|---------------------------------|
|-----------------------------------|---------------------------------|
|--9-------9------9------9------9---|--9-----9----9-----11------11----|
|-11------11-----11-----11-----11---|-11----11---11-----11------11----|
|-11------11-----11-----11-----11---|-11----11---11-----12------12----|
|-----------------------------------|---------------------------------|


   +E     E     +S  S  E   E  E    E     E
|------------------------------------------|
|-(12)---14----(14)---------------------12-|
|----------------------------13---14-------|
|------------------------------------------|
|------------------------------------------|
|------------------------------------------|
|
|   W
|------------------------------------------|
|------------------------------------------|
|------------------------------------------|
|------------------------------------------|
|------------------------------------------|
|------------------------------------------|
|
|   S  E     S   E     S S E  S S  S  S  E
|------------------------------------------|
|------------------------------------------|
|--11-------11--------11------9-------9----|
|--13-------13--------13------9-------9----|
|--14-------14--------14-----11------11----|
|------------------------------------------|


   +Q        E  E    +E   E    +E      E
|----------------------------------------|
|-(12)------12-14---(14)-12---(12)-------|
|-------------------------------------13-|
|----------------------------------------|
|----------------------------------------|
|----------------------------------------|
|
| Gtr III
|   S  E  S  E  S S   E   S S   S   S  E
|----------------------------------------|
|----------------------------------------|
|---9-----9-----9--------11--------11----|
|--11----11----11--------11--------11----|
|--11----11----11--------12--------12----|
|----------------------------------------|
|
| Gtr IV
|   H                 H
|----------------------------------------|
|--21----------------22------------------|
|--21----------------23------------------|
|--18----------------19------------------|
|--19----------------21------------------|
|--21----------------21------------------|


   H              +E   E   E    S S    E   E    E  E    Q       Q
|----------------------9---7----9---|--------------9---------------|
|-----------------------------------|--9--------9------10----------|
|-11-------------(11)---------------|------9-----------------------|
|-----------------------------------|------------------------------|
|-----------------------------------|------------------------------|
|-----------------------------------|------------------------------|
|
|  S E  S E  S S   E   S S S  S E      S E    S E  S S  S  S E  Q
|-----------------------------------|------------------------------|
|-----------------------------------|--9------9----9------10---10--|
|-11---11---11--------11-----11-----|--9------9----9------11---11--|
|-14---14---14--------13-----13-----|-11-----11---11------11---11--|
|-14---14---14--------14-----14-----|------------------------------|
|-----------------------------------|------------------------------|
|
|  H               Q.           E      H                H
|-----------------------------------|------------------------------|
|-19--------------16----------------|------------------------------|
|-21--------------16----------------|------------------------------|
|-21--------------16----------------|-14---------------16----------|
|-21--------------18----------------|-16---------------16----------|
|-19--------------19----------------|-16---------------17----------|


   E    E     E  E    Q      E E
|--------------------------------|
|---------------12---------------|
|-11---------11------13-----11-9-|
|------13------------------------|
|--------------------------------|
|--------------------------------|
|
|  S E     S  E  S S  S S E  Q
|--------------------------------|
|-----------------------9----9---|
|-11------11----11------9----9---|
|-13------13----13------9----9---|
|-14------14----14---------------|
|--------------------------------|
|
|  H                  H
|--------------------------------|
|--------------------------------|
|--------------------------------|
|-16-----------------18----------|
|-18-----------------19----------|
|-19-----------------19----------|


   Q       E  E    Q       Q     Q        E  E    Q       Q
|-----------------------------|-------------------------------|
|-----------------------------|-------------------9-------7---|
|----------9------11----------|----------11--9----------------|
|------------11-----------11--|-------------------------------|
|-----------------------------|-------------------------------|
|-----------------------------|-------------------------------|
|
|  S  E  S E  S S  S  S E  Q     S  E  S  E  S S  S  S E  Q
|-----------------------------|-------------------------------|
|--9-----9----9------10---10--|-------------------------------|
|--9-----9----9------11---11--|-11----11----11------11---11---|
|-11----11---11------11---11--|-14----14----14------13---13---|
|-----------------------------|-14----14----14------14---14---|
|-----------------------------|-------------------------------|
|
|  Q.         E    H             Q.          E    H
|-----------------------------|-------------------------------|
|-----------------------------|-------------------------------|
|-----------------------------|-------------------------------|
|-18--------------19----------|-16---------------16-----------|
|-19--------------21----------|-19---------------18-----------|
|-21--------------21----------|-19---------------19-----------|


   E   E    E  E    Q       Q     E    E     E  E    Q      E   E
|--------------9---------------|------------------------------------|
|--9--------9------10----------|---------------12-------------------|
|------9-----------------------|-11---------11------13-----11---9---|
|------------------------------|------13----------------------------|
|------------------------------|------------------------------------|
|------------------------------|------------------------------------|
|
|  S E    S E  S S  S  S E  Q     S E     S  E  S S  S S E  S E   S
|------------------------------|------------------------------------|
|--9------9----9------10---10--|-----------------------9----9-------|
|--9------9----9------11---11--|-11------11----11------9----9-9-----|
|-11-----11---11------11---11--|-13------13----13------9----9-------|
|------------------------------|-14------14----14-------------------|
|------------------------------|------------------------------------|
|
|  H                H             H                  H
|------------------------------|------------------------------------|
|------------------19----------|-16-----------------17--------------|
|-21---------------------------|------------------------------------|
|-18---------------16----------|-16-----------------14--------------|
|-19---------------16----------|-18-----------------14--------------|
|-21---------------17----------|-19-----------------16--------------|


   E   S  S E  E    Q       Q
|--------------------------------|
|--------------------------------|
|------9----9------11------------|
|-------------11-----------11----|
|--------------------------------|
|--------------------------------|
|
|  S E    S E  S S  S  S E  E E
|--------------------------------|
|--9------9----9------10---10----|
|--9------9----9------11---11----|
|-11-----11---11------11---11----|
|--------------------------------|
|--------------------------------|
|
|  H                H
|-16-----------------------------|
|------------------19------------|
|--------------------------------|
|-14---------------16------------|
|-16---------------16------------|
|-16---------------17------------|


   S S  S  S  E  S S Q       Q     W
|-------------------------------|-----------------------------------|
|--------------------9-------7--|-----------------------------------|
|-11---11----11--9--------------|-----------------------------------|
|-------------------------------|-----------------------------------|
|-------------------------------|-----------------------------------|
|-------------------------------|-----------------------------------|
|
| Gtr II
|  W                               S S E    E  E   S  S E  E    E
|-------------------------------|-----------------------------------|
|-------------------------------|--5---5-----------5----5-----------|
|-------------------------------|-----------6--4-----------6----4---|
|-------------------------------|-----------------------------------|
|-------------------------------|-----------------------------------|
|-------------------------------|-----------------------------------|
|
| Gtr III
|  S E     S  E  S S S  S E  Q     S E    S E  S S S  S E  S S  S S
|-------------------------------|-----------------------------------|
|-12------12----12-----12---12--|-----------------------------------|
|-11------11----11-----11---11--|-13-----13---13-----11---11---11---|
|-14------14----14-----13---13--|-11-----11---11-----14---14---13---|
|-------------------------------|--------------------14---14---14---|
|-------------------------------|-----------------------------------|


   Q      Q      Q       E    E
|--7------------------------------|
|---------9-----------------------|
|----------------9----------------|
|-----------------------11----9---|
|---------------------------------|
|---------------------------------|
|
|  W
|---------------------------------|
|---------------------------------|
|---------------------------------|
|---------------------------------|
|---------------------------------|
|---------------------------------|
|
|  S E  S E  S S S  S E  S S  S S
|---------------------------------|
|---------------------------------|
|-13---13---13-----13---13---13---|
|-13---13---13-----14---14---14---|
|-14---14---14-----16---16---16---|
|---------------------------------|


  Gtr II                               Gtr I
   S S E    E  E    S  S E  E    E      E   E    E  S S  E     E  E    S S
|------------------------------------|------9----7--9----------9--7----9---|
|--5---5------------5----5-----------|-------------------------------------|
|-----------6--4------------6----4---|-------------------------------------|
|------------------------------------|-------------------------------------|
|------------------------------------|-------------------------------------|
|------------------------------------|-------------------------------------|
|
| Gtr III
|  S E    S E  S S  S  S E  S S  S S    S E    S E  S S  S   S E  S S  S S
|------------------------------------|-------------------------------------|
|------------------------------------|-------------------------------------|
|-14-----14---14---------------------|-------------------------------------|
|-14-----14---14------16---16---16---|-18-----18---18-------18---18---18---|
|-16-----16---16------19---19---18---|-18-----18---18-------19---19---19---|
|---------------------19---19---19---|-19-----19---19-------21---21---21---|
|
| Gtr IV
|  H                H                   H                Q.            E
|------------------------------------|--7----------------9-----------------|
|-14---------------12----------------|--9----------------9-----------------|
|-14---------------11----------------|--8----------------9-----------------|
|-11----------------9----------------|--9---------------11-----------------|
|-12----------------9----------------|-11---------------11-----------------|
|-12---------------------------------|-------------------------------------|


  Gtr II                               Gtr I
   S S E    E  E    S  S E  E    E      Q       Q       Q       E    E
|------------------------------------|--7--------------------------------|
|--5---5------------5----5-----------|----------9------------------------|
|-----------6--4------------6----4---|------------------9----------------|
|------------------------------------|-------------------------11----9---|
|------------------------------------|-----------------------------------|
|------------------------------------|-----------------------------------|
|
|  S E    S E  S S  S  S E  S S  S S    S  E  S E  S S  S  S E  S S  S S
|------------------------------------|-----------------------------------|
|------------------------------------|-----------------------------------|
|------------------------------------|-----------------------------------|
|-19-----19---19------16---16---16---|-18----18---18------18---18---18---|
|-19-----19---19------19---19---18---|-18----18---18------19---19---19---|
|-21-----21---21------19---19---19---|-19----19---19------21---21---21---|
|
|  H                H                   Q.         E    H
|-12---------------14----------------|-----------------12----------------|
|-14---------------16----------------|-12--------------14----------------|
|-14---------------16----------------|-13--------------13----------------|
|-11---------------16----------------|-13--------------14----------------|
|-12---------------14----------------|-14--------------16----------------|
|-12---------------14----------------|-16--------------16----------------|


  Gtr II
   S S E    E  E    S  S E  E    E
|------------------------------------|
|--5---5------------5----5-----------|
|-----------6--4------------6----4---|
|------------------------------------|
|------------------------------------|
|------------------------------------|
|
|  S E    S E  S S  S  S E  S S  S S
|------------------------------------|
|------------------------------------|
|------------------------------------|
|-19-----19---19------16---16---16---|
|-19-----19---19------19---19---18---|
|-21-----21---21------19---19---19---|
|
|  H                H
|------------------14----------------|
|-14---------------16----------------|
|-14---------------16----------------|
|-11---------------16----------------|
|-12---------------14----------------|
|-12---------------14----------------|


  Gtr I
   E    E    E  S S  E    E  E S S   H    E E S S E
|-------9----7--9---------9--7-9---|-----------------|
|----------------------------------|----------7---9--|
|----------------------------------|--------9--------|
|----------------------------------|-----------------|
|----------------------------------|-----------------|
|----------------------------------|-----------------|
|
|  S  E    S E  S S  S  S E  E E     W
|----------------------------------|-----------------|
|----------------------------------|-----------------|
|----------------------------------|-----------------|
|-18------18---18------18---18-----|-----------------|
|-18------18---18------19---19-----|-----------------|
|-19------19---19------21---21-----|-----------------|
|
|  Q.           E    H               W
|-------------------12-------------|-----------------|
|-12----------------14-------------|-----------------|
|-13----------------13-------------|-----------------|
|-13----------------14-------------|-----------------|
|-14----------------16-------------|-----------------|
|-16----------------16-------------|-----------------|


  +S  S E   E E    +E  E     E    E   +E     E   E E    +E  E     E    E
|-----------------------------------|------------------------------------|
|-(9)-------7-9----(9)-------7----9-|-(9)---10---9-7----(7)------------7-|
|-------9--------------9------------|-----------------------8-----9------|
|-----------------------------------|------------------------------------|
|-----------------------------------|------------------------------------|
|-----------------------------------|------------------------------------|
|
|  S  E   S E S S   E  S S   S  S E    S  E    S E S S   E  S S   S  S E
|--0------0---0--------0--------0---|--2-------2---2--------2--------2---|
|--2------2---2--------2--------2---|--2-------2---2--------2--------2---|
|--1------1---1--------1--------1---|--2-------2---2--------2--------2---|
|-----------------------------------|------------------------------------|
|-----------------------------------|------------------------------------|
|-----------------------------------|------------------------------------|
|
|  H               +Q       +S  S E    H                +Q       +S  S E
|-----------------------------------|------------------------------------|
|-----------------------------------|------------------------------------|
|-----------------------------------|------------------------------------|
|-14--------------(14)-----(14)-----|-16---------------(16)-----(16)-----|
|-16--------------(16)-----(16)-----|-16---------------(16)-----(16)-----|
|-16--------------(16)-----(16)-----|-17---------------(17)-----(17)-----|


  +E    E   E E    +S  S E     E    E
|---------------------------------------|
|-(7)---------7----(7)---7-----9----7---|
|-------8---9---------------------------|
|---------------------------------------|
|---------------------------------------|
|---------------------------------------|
|
|  S  E   S E S S   E    S S   S  S E
|--2------2---2----------2--------2-----|
|--4------4---4----------4--------4-----|
|--4------4---4----------4--------4-----|
|---------------------------------------|
|---------------------------------------|
|---------------------------------------|
|
|  H               +Q         +S  S E
|---------------------------------------|
|---------------------------------------|
|---------------------------------------|
|-16--------------(16)-------(16)-------|
|-18--------------(18)-------(18)-------|
|-19--------------(19)-------(19)-------|


  +S  S E   +Q      H              W
|-------------------------------|---------------------------------|
|-(7)---5---(5)-----------------|---------------------------------|
|-------------------------------|---------------------------------|
|-------------------------------|---------------------------------|
|-------------------------------|---------------------------------|
|-------------------------------|---------------------------------|
|
| Gtr II
|  H                E E   E   E   +E    S S S S E   +E  S S S S E
|-------------------------------|---------------------------------|
|---------------------5---7---9-|-(9)-------7---9---(9)-----7---9-|
|-------------------------------|-------9---------------9---------|
|-------------------------------|---------------------------------|
|-------------------------------|---------------------------------|
|-------------------------------|---------------------------------|
|
| Gtr III
|  S  E   S  E  S S E S S S S E    S  E   S E   S S  E  S S S S E
|--0------0-----0-----0-----0---|--0------0-----0-------0-----0---|
|--2------2-----2-----2-----2---|--2------2-----2-------2-----2---|
|--1------1-----1-----1-----1---|--1------1-----1-------1-----1---|
|-------------------------------|---------------------------------|
|-------------------------------|---------------------------------|
|-------------------------------|---------------------------------|


   W
|-----------------------------------|
|-----------------------------------|
|-----------------------------------|
|-----------------------------------|
|-----------------------------------|
|-----------------------------------|
|
| +E     S S S S E   +E  E   S S E
|-----------------------------------|
|-(9)---10---9---7---(7)---------7--|
|------------------------8---9------|
|-----------------------------------|
|-----------------------------------|
|-----------------------------------|
|
|  S  E    S E   S S  E  S S S S E
|--2-------2-----2-------2-----2----|
|--2-------2-----2-------2-----2----|
|--2-------2-----2-------2-----2----|
|-----------------------------------|
|-----------------------------------|
|-----------------------------------|


   W
|---------------------------------|
|---------------------------------|
|---------------------------------|
|---------------------------------|
|---------------------------------|
|---------------------------------|
|
| +E    E   E E   +S  S E   S S E
|---------------------------------|
|-(7)---------7---(7)---7---9---7-|
|-------8---9---------------------|
|---------------------------------|
|---------------------------------|
|---------------------------------|
|
|  S  E   S E S S  E    S S S S E
|--2------2---2---------2-----2---|
|--4------4---4---------4-----4---|
|--4------4---4---------4-----4---|
|---------------------------------|
|---------------------------------|
|---------------------------------|


   H                E E   E   E   +Q.       E   E E    E    E
|---------------------4---5---7-|-(7)-------------9-----------|
|-------------------------------|---------------------10---12-|
|-------------------------------|-----------------------------|
|-------------------------------|-----------------------------|
|-------------------------------|-----------------------------|
|-------------------------------|-----------------------------|
|
| +E    E   +Q      H              W
|-------------------------------|-----------------------------|
|-(7)---5---(5)-----------------|-----------------------------|
|-------------------------------|-----------------------------|
|-------------------------------|-----------------------------|
|-------------------------------|-----------------------------|
|-------------------------------|-----------------------------|
|
|  S  E   S  E  S S E S S S S E    S  E S E S S E S S  S S  E
|--0------0-----0-----0-----0---|--0----0---0-----2------2----|
|--2------2-----2-----2-----2---|--2----2---2-----2------2----|
|--1------1-----1-----1-----1---|--1----1---1-----2------2----|
|-------------------------------|-----------------------------|
|-------------------------------|-----------------------------|
|-------------------------------|-----------------------------|


   +E     E    +S  S E    E  E    E    E
|----------------------------------------|
|-(12)---14---(14)--------------------12-|
|---------------------------13---14------|
|----------------------------------------|
|----------------------------------------|
|----------------------------------------|
|
| Gtr III
|   S  E    S   E    S S  E  S S  S S  E
|---2-------2--------2-------0------0----|
|---4-------4--------4-------0------0----|
|---4-------4--------4-------1------1----|
|----------------------------------------|
|----------------------------------------|
|----------------------------------------|
|
| Gtr IV
|   H                     H
|----------------------------------------|
|--19--------------------21--------------|
|--20--------------------21--------------|
|--16--------------------18--------------|
|--18--------------------19--------------|
|--19--------------------19--------------|


   +Q       E  E    +E   E    +E     E    H            +E  E   E   S S
|--------------------------------------|-------------------9---7---9---|
|-(12)-----12-14---(14)-12---(12)------|-------------------------------|
|-----------------------------------13-|-11-----------(11)-------------|
|--------------------------------------|-------------------------------|
|--------------------------------------|-------------------------------|
|--------------------------------------|-------------------------------|
|
|   S  E S  E  S S   E   S S   S  S  E    S E S E S S   E  S S S S E
|---0----0-----0---------2--------2----|--2---2---2--------2-----2-----|
|---2----2-----2---------2--------2----|--5---5---5--------4-----4-----|
|---1----1-----1---------2--------2----|--4---4---4--------4-----4-----|
|--------------------------------------|-------------------------------|
|--------------------------------------|-------------------------------|
|--------------------------------------|-------------------------------|
|
|   H                H                    H             H
|--------------------------------------|-------------------------------|
|--21---------------22-----------------|-19------------19--------------|
|--21---------------23-----------------|-21------------16--------------|
|--18---------------19-----------------|-21------------16--------------|
|--19---------------21-----------------|-21------------18--------------|
|--21---------------21-----------------|-19------------19--------------|


  Gtr II                          Gtr I
   S S E   E E   S  S E E   E      Q     Q     Q       E   E
|-------------------------------|--7---------------------------|
|--5---5---------5----5---------|--------9---------------------|
|----------6-4----------6---4---|--------------9---------------|
|-------------------------------|---------------------11---9---|
|-------------------------------|------------------------------|
|-------------------------------|------------------------------|
|
|  S E   S E S S S  S E S S S S    S E S E S S S  S E  S S S S
|--4-----4---4------2---2---2---|--4---4---4------4----4---4---|
|--5-----5---5------5---5---4---|--4---4---4------5----5---5---|
|--6-----6---6------4---4---4---|--4---4---4------6----6---6---|
|-------------------------------|------------------------------|
|-------------------------------|------------------------------|
|-------------------------------|------------------------------|
|
|  H             Q.         E      H           Q.          E
|----------------7--------------|--7---------------------------|
|-14-------------7--------------|--9-----------9---------------|
|-14----------------------------|--8-----------6---------------|
|-11-------------9--------------|--9-----------6---------------|
|-12-------------9--------------|-11-----------7---------------|
|-12-------------7--------------|-11-----------9---------------|


  Gtr II                         Gtr I
  S S E   E E   S  S E E   E      E   E   E S S E     E  E    S S
|------------------------------|------9---7-9---------9--7----9---|
|-5---5---------5----5---------|----------------------------------|
|---------6-4----------6---4---|----------------------------------|
|------------------------------|----------------------------------|
|------------------------------|----------------------------------|
|------------------------------|----------------------------------|
|
| S E   S E S S S  S E S S S S    S E   S E S S S   S E  S S  S S
|-5-----5---5------------------|----------------------------------|
|-5-----5---5------7---7---7---|--9-----9---9-------9----9----9---|
|-6-----6---6------9---9---8---|--8-----8---8-------9----9----9---|
|------------------9---9---9---|--9-----9---9------11---11---11---|
|------------------------------|----------------------------------|
|------------------------------|----------------------------------|
|
| H             Q.         E      H             Q.            E
|-9-------------7--------------|--7-------------------------------|
|---------------7--------------|--9-------------9-----------------|
|-6-------------4--------------|--8-------------6-----------------|
|-7-------------4--------------|--9-------------6-----------------|
|-7----------------------------|-11-------------7-----------------|
|-5-------------7--------------|-11-------------9-----------------|


  Gtr II                            Gtr I
   S S E    E  E    S S E E   E      Q      Q     Q       E    E
|---------------------------------|--7-----------------------------|
|--5---5------------5---5---------|---------9----------------------|
|-----------6--4----------6---4---|---------------9----------------|
|---------------------------------|----------------------11----9---|
|---------------------------------|--------------------------------|
|---------------------------------|--------------------------------|
|
|  S E    S E  S S  S S E S S S S    S  E S E S S S  S E  S S  S S
|---------------------------------|--------------------------------|
|-10-----10---10------7---7---7---|--9----9---9------9----9----9---|
|--9------9----9------9---9---8---|--8----8---8------9----9----9---|
|-11-----11---11------9---9---9---|--9----9---9-----11---11---11---|
|---------------------------------|--------------------------------|
|---------------------------------|--------------------------------|
|
|  H                H                Q.       E   H
|--9---------------11-------------|--7-----------------------------|
|-------------------0-------------|--9------------9----------------|
|--6---------------11-------------|--8------------6----------------|
|--7----------------4-------------|--9------------6----------------|
|--7------------------------------|-11------------7----------------|
|--5----------------7-------------|-11------------9----------------|


  Gtr II
   S S E    E  E    S S E E   E
|---------------------------------|
|--5---5------------5---5---------|
|-----------6--4----------6---4---|
|---------------------------------|
|---------------------------------|
|---------------------------------|
|
|  S E    S E  S S  S S E S S S S
|---------------------------------|
|-10-----10---10------7---7---7---|
|--9------9----9------9---9---8---|
|-11-----11---11------9---9---9---|
|---------------------------------|
|---------------------------------|
|
|  H                H
|--9---------------11-------------|
|-------------------0-------------|
|--6---------------11-------------|
|--7----------------4-------------|
|--7------------------------------|
|--5----------------7-------------|


  Gtr I
   E    E   E S S E    E  E S S    E   E    E  E    Q       Q
|-------9---7-9--------9--7-9---|--------------9---------------|
|-------------------------------|--9--------9------10----------|
|-------------------------------|------9-----------------------|
|-------------------------------|------------------------------|
|-------------------------------|------------------------------|
|-------------------------------|------------------------------|
|
|  S  E   S E S S S  S E  E E      S E    S E  S S  S  S E  Q
|-------------------------------|------------------------------|
|--9------9---9------9----9-----|--9------9----9------10---10--|
|--8------8---8------9----9-----|--9------9----9------11---11--|
|--9------9---9-----11---11-----|-11-----11---11------11---11--|
|-------------------------------|------------------------------|
|-------------------------------|------------------------------|
|
|  Q.         E   H                H                H
|--7--------------0-------------|------------------17----------|
|--9--------------2-------------|--2---------------------------|
|--8--------------1-------------|--1---------------------------|
|--9--------------2-------------|------------------16----------|
|-11--------------4-------------|------------------16----------|
|-11----------------------------|------------------17----------|


   E    E     E  E    Q      E E
|--------------------------------|
|---------------12---------------|
|-11---------11------13-----11-9-|
|------13------------------------|
|--------------------------------|
|--------------------------------|
|
|  S E     S  E  S S  S S E  Q
|--------------------------------|
|-----------------------9----9---|
|-11------11----11------9----9---|
|-13------13----13------9----9---|
|-14------14----14---------------|
|--------------------------------|
|
|  H                  H
|--------------------------------|
|-19-----------------17----------|
|--------------------------------|
|-16-----------------18----------|
|-18-----------------19----------|
|-19-----------------19----------|


   Q      E  E    Q       Q     Q       E  E    Q       Q
|----------------------------|------------------------------|
|----------------------------|------------------9-------7---|
|---------9------11----------|---------11--9----------------|
|-----------11-----------11--|------------------------------|
|----------------------------|------------------------------|
|----------------------------|------------------------------|
|
|  S E  S E  S S  S  S E  Q     S E  S  E  S S  S  S E  Q
|----------------------------|------------------------------|
|--9----9----9------10---10--|-12---12----12------12---12---|
|--9----9----9------11---11--|-11---11----11------11---11---|
|-11---11---11------11---11--|-14---14----14------13---13---|
|----------------------------|------------------------------|
|----------------------------|------------------------------|
|
|  H              H             H               H
|----------------------------|------------------------------|
|-21-------------19----------|-17--------------16-----------|
|----------------------------|------------------------------|
|-18-------------19----------|-16--------------16-----------|
|-19-------------21----------|-19--------------18-----------|
|-21-------------21----------|-19--------------19-----------|


   E   E    E  E    Q       Q     E    E     E  E    Q      E   E
|--------------9---------------|------------------------------------|
|--9--------9------10----------|---------------12-------------------|
|------9-----------------------|-11---------11------13-----11---9---|
|------------------------------|------13----------------------------|
|------------------------------|------------------------------------|
|------------------------------|------------------------------------|
|
|  S E    S E  S S  S  S E  Q     S E     S  E  S S  S S E  S E   S
|------------------------------|------------------------------------|
|---------------------10---10--|-----------------------9----9-------|
|-13-----13---13------11---11--|-11------11----11------9----9-9-----|
|-11-----11---11------11---11--|-13------13----13------9----9-------|
|------------------------------|-14------14----14-------------------|
|------------------------------|------------------------------------|
|
|  H                H             H                  H
|------------------------------|-19-----------------16--------------|
|------------------19----------|--0------------------0--------------|
|-21---------------------------|------------------------------------|
|-18---------------16----------|-16-----------------14--------------|
|-19---------------16----------|-18---------------------------------|
|-21---------------17----------|--------------------16--------------|


   E   S  S E  E    Q       Q
|--------------------------------|
|--------------------------------|
|------9----9------11------------|
|-------------11-----------11----|
|--------------------------------|
|--------------------------------|
|
|  S E    S E  S S  S  S E  E E
|--------------------------------|
|--9------9----9------10---10----|
|--9------9----9------11---11----|
|-11-----11---11------11---11----|
|--------------------------------|
|--------------------------------|
|
|  H                H
|--------------------------------|
|-17---------------19------------|
|--------------------------------|
|-14---------------16------------|
|-16---------------16------------|
|-16---------------17------------|


   S S  S  S  E  S S  Q       Q
|--------------------------------|
|---------------------9-------7--|
|-11---11----11--9---------------|
|--------------------------------|
|--------------------------------|
|--------------------------------|
|
|  S E     S  E  S S  S  S E  Q
|--------------------------------|
|-12------12----12------12---12--|
|-11------11----11------11---11--|
|-14------14----14------13---13--|
|--------------------------------|
|--------------------------------|
|
|  H                  H
|--------------------------------|
|--------------------------------|
|-16-----------------------------|
|-16-----------------16----------|
|-19-----------------18----------|
|-19-----------------19----------|


   E   E    E  E    Q       Q     E    E     E  E    Q      E E
|--------------9---------------|---------------------------------|
|--9--------9------10----------|---------------12----------------|
|------9-----------------------|-11---------11------13-----11-9--|
|------------------------------|------13-------------------------|
|------------------------------|---------------------------------|
|------------------------------|---------------------------------|
|
|  S E    S E  S S  S  S E  Q     S E     S  E  S S  S S E  Q
|------------------------------|---------------------------------|
|------------------------------|---------------------------------|
|-13-----13---13------11---11--|-11------11----11------9----9----|
|-11-----11---11------11---11--|-13------13----13------9----9----|
|------------------------------|---------------------------------|
|------------------------------|---------------------------------|
|
|  H                H             H                  H
|-21---------------17----------|---------------------------------|
|------------------------------|-19-----------------17-----------|
|------------------------------|---------------------------------|
|------------------16----------|-16-----------------18-----------|
|------------------16----------|-18-----------------19-----------|
|------------------17----------|-19-----------------19-----------|


   Q      E  E    Q       Q     Q       E  E    Q       Q
|----------------------------|-----------------------------|
|----------------------------|------------------9-------7--|
|---------9------11----------|---------11--9---------------|
|-----------11-----------11--|-----------------------------|
|----------------------------|-----------------------------|
|----------------------------|-----------------------------|
|
|  S E  S E  S S  S  S E  Q     S E  S  E  S S  S  S E  Q
|----------------------------|-----------------------------|
|--9----9----9------10---10--|-12---12----12------12---12--|
|--9----9----9------11---11--|-11---11----11------11---11--|
|-11---11---11------11---11--|-14---14----14------13---13--|
|----------------------------|-----------------------------|
|----------------------------|-----------------------------|
|
|  H              H             H               H
|----------------------------|-----------------------------|
|-21-------------19----------|-17--------------16----------|
|----------------------------|-----------------------------|
|-18-------------19----------|-16--------------16----------|
|-19-------------21----------|-19--------------18----------|
|-21-------------21----------|-19--------------19----------|


   E   E    E  E    Q       Q
|--------------9----------------|
|--9--------9------10-----------|
|------9------------------------|
|-------------------------------|
|-------------------------------|
|-------------------------------|
|
|  S E    S E  S S  S  S E  Q
|-------------------------------|
|---------------------10---10---|
|-13-----13---13------11---11---|
|-11-----11---11------11---11---|
|-------------------------------|
|-------------------------------|
|
|  H                H
|-------------------------------|
|------------------19-----------|
|-21----------------------------|
|-18---------------16-----------|
|-19---------------16-----------|
|-21---------------17-----------|


   E    E     E  E    Q      E   E
|------------------------------------|
|---------------12-------------------|
|-11---------11------13-----11---9---|
|------13----------------------------|
|------------------------------------|
|------------------------------------|
|
|  S E     S  E  S S  S S E  S E   S
|------------------------------------|
|-----------------------9----9-------|
|-11------11----11------9----9-9-----|
|-13------13----13------9----9-------|
|-14------14----14-------------------|
|------------------------------------|
|
|  H                  H
|-19-----------------16--------------|
|--0------------------0--------------|
|------------------------------------|
|-16-----------------14--------------|
|-18---------------------------------|
|--------------------16--------------|


   E   S  S E  E    Q       Q      S S  S  S  E  S S  Q       Q
|-------------------------------|---------------------------------|
|-------------------------------|---------------------9-------7---|
|------9----9------11-----------|-11---11----11--9----------------|
|-------------11-----------11---|---------------------------------|
|-------------------------------|---------------------------------|
|-------------------------------|---------------------------------|
|
|  S E    S E  S S  S  S E  E E    S E     S  E  S S  S  S E  Q
|-------------------------------|---------------------------------|
|--9------9----9------10---10---|-12------12----12------12---12---|
|--9------9----9------11---11---|-11------11----11------11---11---|
|-11-----11---11------11---11---|-14------14----14------13---13---|
|-------------------------------|---------------------------------|
|-------------------------------|---------------------------------|
|
|  H                H              H                  H
|-------------------------------|---------------------------------|
|-17---------------19-----------|---------------------------------|
|-------------------------------|-16------------------------------|
|-14---------------16-----------|-16-----------------16-----------|
|-16---------------16-----------|-19-----------------18-----------|
|-16---------------17-----------|-19-----------------19-----------|


  Gtr II                            Gtr I
   S S E    E  E    S S E E   E      Q     Q      Q        E    E
|---------------------------------|--7------------------------------|
|--5---5------------5---5---------|--------9------------------------|
|-----------6--4----------6---4---|---------------9-----------------|
|---------------------------------|-----------------------11----9---|
|---------------------------------|---------------------------------|
|---------------------------------|---------------------------------|
|
|  S E    S E  S S  S S E S S S S    S E S E S S  S   S E  S S  S S
|---------------------------------|---------------------------------|
|--9------9----9------7---7---7---|--9---9---9--------9----9----9---|
|--9------9----9------9---9---8---|--8---8---8--------9----9----9---|
|-11-----11---11------9---9---9---|--9---9---9-------11---11---11---|
|---------------------------------|---------------------------------|
|---------------------------------|---------------------------------|
|
|  H                H                H            Q.            E
|-12---------------11-------------|--7------------9-----------------|
|-14---------------12-------------|--9------------9-----------------|
|-14---------------11-------------|--8------------9-----------------|
|-11----------------9-------------|--9-----------11-----------------|
|-12----------------9-------------|-11-----------11-----------------|
|-12------------------------------|---------------------------------|


  Gtr II                            Gtr I
   S S E    E  E    S S E E   E      E   E   E S S  E     E  E    S S
|---------------------------------|------9---7-9----------9--7----9---|
|--5---5------------5---5---------|-----------------------------------|
|-----------6--4----------6---4---|-----------------------------------|
|---------------------------------|-----------------------------------|
|---------------------------------|-----------------------------------|
|---------------------------------|-----------------------------------|
|
|  S E    S E  S S  S S E S S S S    S E   S E S S  S   S E  S S  S S
|---------------------------------|-----------------------------------|
|-10-----10---10------7---7---7---|--9-----9---9--------9----9----9---|
|--9------9----9------9---9---8---|--8-----8---8--------9----9----9---|
|-11-----11---11------9---9---9---|--9-----9---9-------11---11---11---|
|---------------------------------|-----------------------------------|
|---------------------------------|-----------------------------------|
|
|  H                H                H              Q.            E
|-12---------------11-------------|-11--------------9-----------------|
|-14---------------12-------------|--9--------------9-----------------|
|-14---------------11-------------|--8--------------9-----------------|
|-11----------------9-------------|--9-------------11-----------------|
|-12----------------9-------------|-11-------------11-----------------|
|-12------------------------------|-----------------------------------|


  Gtr II                            Gtr I
   S S E    E  E    S S E E   E      Q      Q      Q       E    E
|---------------------------------|--7------------------------------|
|--5---5------------5---5---------|---------9-----------------------|
|-----------6--4----------6---4---|----------------9----------------|
|---------------------------------|-----------------------11----9---|
|---------------------------------|---------------------------------|
|---------------------------------|---------------------------------|
|
|  S E    S E  S S  S S E S S S S    S  E S E S S  S  S E  S S  S S
|---------------------------------|---------------------------------|
|-10-----10---10------7---7---7---|--9----9---9-------9----9----9---|
|--9------9----9------9---9---8---|--8----8---8-------9----9----9---|
|-11-----11---11------9---9---9---|--9----9---9------11---11---11---|
|---------------------------------|---------------------------------|
|---------------------------------|---------------------------------|
|
|  H                H                Q.       E    H
|-12---------------14-------------|---------------12----------------|
|-14---------------16-------------|-12------------14----------------|
|-14---------------16-------------|-13------------13----------------|
|-11---------------16-------------|-13------------14----------------|
|-12---------------14-------------|-14------------16----------------|
|-12---------------14-------------|-16------------16----------------|


  Gtr II                            Gtr I
   S S E    E  E    S S E E   E      E    E   E S S  E    E  E S S
|---------------------------------|-------9---7-9---------9--7-9---|
|--5---5------------5---5---------|--------------------------------|
|-----------6--4----------6---4---|--------------------------------|
|---------------------------------|--------------------------------|
|---------------------------------|--------------------------------|
|---------------------------------|--------------------------------|
|
|  S E    S E  S S  S S E S S S S    S  E   S E S S  S  S E  E E
|---------------------------------|--------------------------------|
|-10-----10---10------7---7---7---|--9------9---9-------9----9-----|
|--9------9----9------9---9---8---|--8------8---8-------9----9-----|
|-11-----11---11------9---9---9---|--9------9---9------11---11-----|
|---------------------------------|--------------------------------|
|---------------------------------|--------------------------------|
|
|  H                H                Q.         E    H
|------------------14-------------|-----------------12-------------|
|-14---------------16-------------|-12--------------14-------------|
|-14---------------16-------------|-13--------------13-------------|
|-11---------------16-------------|-13--------------14-------------|
|-12---------------14-------------|-14--------------16-------------|
|-12---------------14-------------|-16--------------16-------------|


   E   E    E  S S  E   E +E    E
|------9----7--5----9---7-(7)--------|
|-------------------------------9----|
|------------------------------------|
|------------------------------------|
|------------------------------------|
|------------------------------------|
|
|  S E    S E  S S  S S E  S  S S S
|------------------------------------|
|-10-----10---10------7----7----7----|
|--9------9----9------9----9----8----|
|-11-----11---11------9----9----9----|
|------------------------------------|
|------------------------------------|
|
|  H                H
|-12---------------14----------------|
|-14---------------16----------------|
|-14---------------16----------------|
|-11---------------16----------------|
|-12---------------14----------------|
|-12---------------14----------------|


  +H             H                    W
|----------------------------------|------------------------------|
|-(9)------------------------------|------------------------------|
|----------------------------------|------------------------------|
|----------------------------------|------------------------------|
|----------------------------------|------------------------------|
|----------------------------------|------------------------------|
|
| Gtr II
|  Q       E S S S  S E +E     E      W
|---------11-----7----9-(9)--------|------------------------------|
|------------9---------------------|------------------------------|
|----------------------------------|------------------------------|
|----------------------------------|------------------------------|
|----------------------------------|------------------------------|
|----------------------------------|------------------------------|
|
| Gtr III
|  S  E S  E S S S  S E  S  S  S S    S E  S E  S S S S E S S S S
|----------------------------------|------------------------------|
|--9----9----9------9----9-----9---|-10---10---10-----7---7---7---|
|--8----8----8------9----9-----9---|--9----9----9-----9---9---8---|
|--9----9----9-----11---11----11---|-11---11---11-----9---9---9---|
|----------------------------------|------------------------------|
|----------------------------------|------------------------------|


  E    S S  S  S  E    E     E  +Q
|-----16---14-------------------------*|
|-------------16-14---12----14-(14)---*|
|-------------------------------------*|
|-------------------------------------*|
|-------------------------------------*|
|-------------------------------------*|
|
| W
|-------------------------------------*|
|-------------------------------------*|
|-------------------------------------*|
|-------------------------------------*|
|-------------------------------------*|
|-------------------------------------*|
|
| S E    S  E     S S  S  S  E   E  E
|-------------------------------------*|
|-9------9--------9-------9------9----*|
|-8------8--------8-------9------9----*|
|-9------9--------9------11-----11----*|
|-------------------------------------*|
|-------------------------------------*|


Duration Legend
---------------
W - whole; H - half; Q - quarter; E - 8th; S - 16th; T - 32nd; X - 64th; a - acciaccatura
+ - note tied to previous; . - note dotted; .. - note double dotted
Uncapitalized letters represent notes that are staccato (1/2 duration)
Irregular groupings are notated above the duration line
Duration letters will always appear directly above the note/fret number it represents the
duration for.  Duration letters with no fret number below them represent rests.  Multi-
bar rests are notated in the form Wxn, where n is the number of bars to rest for.  Low
melody durations appear below the staff

Tablature Legend
----------------
 h   - hammer-on
 p   - pull-off
 b   - bend
 pb  - pre-bend
 r   - bend release (if no number after the r, then release immediately)
 /\  - slide into or out of (from/to "nowhere")
 s   - legato slide
 S   - shift slide
<n>  - natural harmonic
[n]  - artificial harmonic
n(n) - tapped harmonic
 ~   - vibrato
 tr  - trill
 T   - tap
 TP  - trem. picking
 PM  - palm muting
\n/  - tremolo bar dip; n = amount to dip
 \n  - tremolo bar down
 n/  - tremolo bar up
/n\  - tremolo bar inverted dip
 =   - hold bend; also acts as connecting device for hammers/pulls
 <>  - volume swell (louder/softer)
 x   - on rhythm slash represents muted slash
 o   - on rhythm slash represents single note slash

Misc Legend
-----------
 |  - bar
||  - double bar
||o - repeat start
o|| - repeat end
*|  - double bar (ending)
 :  - bar (freetime)
 $  - Segno
 &  - Coda
Tempo markers - <E/E./Q/Q./H/H.> = BPM(8/16=s8/s16), where s8 = swing 8ths, s16 = swing 16ths
comments
We did not receive enough feedback on this tab! Please rate:
print report bad tab
1 2 3 4 5
I want to post or [tab]
guest
You may want to rate the tab now too:
select rating
Please do not post tabs as comments. Select "correction" instead!