Oops, an error
Loading. Please wait.

Charge Tab

264 views 6 this week
no commentswrite comment
1 2 3 4 5
excellent!
x 2
Autoscroll
+/-
esc
set tempo
stop
Hey! There's an official Ultimate Guitar app which is ideal
for learning songs when you're away from computer. Get the app
WARNING: You are trying to view
                                    content from Ultimate-Guitar.com
                                    in an unauthorized application,
                                    which is prohibited.

                                    Please use an official Ultimate
                                    Guitar Tabs application for iPhone,
                                    iPad or Android to access legitimate
                                    chords, guitar, bass, and drum tabs
                                    from Ultimate-Guitar.com database.

                                    Type "ultimate guitar tabs" in Apple
                                    App Store's or Android Market's
                                    search to find the application.
Songs:
1. Now, Stand Back For Your Own Safety!
2. Fashion Zombies!
3. Stuck In A Movie!
4. Tiger Rider vs. Time Sprinkler!
5. Nerd Alert!
6. Plastic Lips!
7. Look At Me, I'm A Winner!
8. Hot Summer Nights (Won't last forever)
9. Meltdown!
10. Mechanical Ape!
11. Demolition Rickshaw!
12. Waterslides!
13. Awesome Forces!

(Some of these tabs are copied. I will give credit where credit is due.)
The First one is just six second clip saying: "Now, Stand Back For Your Own Safety!"

Fashion Zombies:
INTRO (play this 4 times)

e|---------------------------------------------------------------------------|
B|---------------------------------------------------------------------------|
G|---------------------------------------------------------------------------|
D|--------1111---------------------------------------------------------------|
A|1111--------0000-----------------------------------------------------------|
E|----0000-------------------------------------------------------------------|
Pre-chorus guitar 1 (2 times)

e]---------------------------------------------------------------------------|
B]---------------------------------------------------------------------------|
G]---10101010---5555---3333---7777-------------------------------------------|
D]---10101010---5555---3333---7777-------------------------------------------|
A]---8-8-8-8----3333---1111---5555-------------------------------------------|
E]---------------------------------------------------------------------------|
(Copied from Fashion Zombies Intro)

Pre Chorus guitar 2 (Also Two times)

e|--------131210-------1012--------810----------810--------------------------|
B|-------------------13----13----11---11------10---10------------------------|
G|---------------------------------------------------------------------------|
D|---------------------------------------------------------------------------|
A|---------------------------------------------------------------------------|
E|---------------------------------------------------------------------------|


Chorus
Guitar 1 is same as prechorus except power chords play continually.

Chorus guitar 2
e|----131210--------1012----------810-----------10---------------------------|
B|----------------13----13------11---11-12-10-12--11-12----------------------|
G|---------------------------------------------------------------------------|
D|---------------------------------------------------------------------------|
A|---------------------------------------------------------------------------|
E|---------------------------------------------------------------------------|

Verse (play four times)
e|-------------------55-5----------------------------------------------------|
B|-----------------5-55-5----------------------------------------------------|
G|-------5--7------5-55-5--------5--7~~~-------------------------------------|
D|-7--7--5--7--7-7---------7--7--5--7~~~-------------------------------------|
A|-7--7--3--5--7-7---------7--7--3--5~~~-------------------------------------|
E|-5--5--------5-5---------5--5----------------------------------------------|

In between each repeat of the above, there is a pause.
In between 1st and 3rd pause|In between second pause
e|------10------------------|------------------------------------------------|
B|--------10----------------|------------------------------------------------|
G|--------------------------|------------------------------------------------|
D|--------------------------|----------8\4-----------------------------------|
A|--------------------------|----------8\4-----------------------------------|
E|--------------------------|----------6\2-----------------------------------|

Order of song:
Intro
Prechorus
Chorus
Verse
Prechorus
Chorus
Verse
Prechorus
Chorus
Intro
Prechorus
Chorus
Chorus


Stuck In A Movie:
Verse/Intro/Prechorus
e|--2-2-2-2-1-1-1-1-2-2-2-2-5-5-5-5------------------------------------------|
B|--3-3-3-3-1-1-1-1-3-3-3-3-7-7-7-7------------------------------------------|
G|--2-2-2-2-2-2-2-2-2-2-2-2-7-7-7-7------------------------------------------|
D|---------------------------------------------------------------------------|
A|---------------------------------------------------------------------------|
E|---------------------------------------------------------------------------|

Chorus is Bb5 continually.

Hook (play four times)
e|---------------------------------------------------------------------------|
B|---------------------------------------------------------------------------|
G|---4-4-4-4-4444444-3333333333333-------------------------------------------|
D|---4-4-4-4-4444444-3333333333333-------------------------------------------|
A|---2-2-2-2-2222222-1111111111111-------------------------------------------|
E|---------------------------------------------------------------------------|

Solo (play thrice)
e|---------------------------------------------------------------------------|
B|---------------------------------------------------------------------------|
G|---11-13-11-13b~~~~--13-16-12-13b~~~~--13-------13b~~~~--13-16-15-12b~~~~--|
D|------------------------------------------14-13----------------------------|
A|---------------------------------------------------------------------------|
E|---------------------------------------------------------------------------|

Order of song:
Intro
Verse
Prechorus
Chorus
Verse
Prechorus
Chorus
Hook
Solo
Chorus

Tiger Rider vs. The Time Sprinkler!
(The verse and interlude are copied from the tab for this song)
Verse/Intro (play twice)
E-------------------------------------------|
B-------------------------------------------|
G-4-4-4-4---------------7-7-7-7----7-7-7-7--|
D-4-4-4-4----4-4-4-4----7-7-7-7----7-7-7-7--|
A-2-2-2-2----4-4-4-4----5-5-5-5----5-5-5-5--|
E------------2-2-2-2------------------------|

Interlude
E-------------------------------------------|
B-------------------------------------------|
G-------------------------------------------|
D-----0------0------0--5555-----------------|
A-2202-0-2202-0-2202-0-3333-----------------|
E-------------------------------------------|

Chorus
E-------------------------------------------|
B-------------------------------------------|
G-------------------------------------------|
D--555555--7-7-7-777--55544444555555555555--|
A--333333--5-5-5-555--33322222333333333333--|
E-------------------------------------------|

Solo (play twice)
E-------------------------------------------|
B--11-13-11-12-9-8-77-66-55-6b~~~~ 6b~~~~~--|
G-------------------------------------------|
D-------------------------------------------|
A-------------------------------------------|
E-------------------------------------------|

Order of song:
Intro
Verse
Interlude
Verse
Interlude
Chorus
Solo
Verse
Interlude
Chorus
Chorus

5. Nerd Alert!
Intro (play twice)
e|---------------------------------------------------------------------------|
B|---------------------------------------------------------------------------|
G|---------------------------------------------------------------------------|
D|---2-----------------------------------------------------------------------|
A|-0---3---3------8-5--------------------------------------------------------|
E|----------3/4--5-----5-3---------------------------------------------------|

Verse (copied from the tab for this song)
e|---------------------------------------------------------------------------|
B|---------------------------------------------------------------------------|
G|--5-5-5-5-10-10-10-10-7-7-7-7-12-12-12-12----------------------------------|
D|--5-5-5-5-10-10-10-10-7-7-7-7-12-12-12-12----------------------------------|
A|--3-3-3-3-8--8--8--8--5-5-5-5-10-10-10-10----------------------------------|
E|---------------------------------------------------------------------------|

Prechorus is keyboard only

Chorus (Play twice)

e|---------------------------------------------------------------------------|
B|---------------------------------------------------------------------------|
G|------5-------7------7--7-5------------------------------------------------|
D|--7---5---5---7---7--7--7-5------------------------------------------------|
A|--7---3---5---5---7--5--5-3------------------------------------------------|
E|--5-------3-------5--------------------------------------------------------|


Bridge (play thrice)
e|---------------------------------------------------------------------------|
B|---------------------------------------------------------------------------|
G|---9-7-------------------------9-7-----------------------------------------|
D|------11-9-8-7-7-98-8-11-9-8------11-9-8-7-7-98-6-999-8--------------------|
A|---------------------------------------------------------------------------|
E|-3----------------------------3--------------------------------------------|


Order of Song
Intro
Verse
Prechorus
Chorus
Intro
Verse
Prechorus
Chorus
Intro
Bridge
Chorus
Intro

6. Plastic Lips!

Riff:
e|---------------------------------------------------------------------------|
B|---------------------------------------------------------------------------|
G|------6-5-4-------6-5-4------6-5-4-----------------------------------------|
D|-00-00---------------------------------------------------------------------|
A|------------------------33-33----------------------------------------------|
E|-------------33-33---------------------------------------------------------|

Unfortunately, that is all I know, and I cannot find it on any other site. If there is a 
tab left in the comments I will submit this again with it.

7. Look At Me, I'm A Winner!
(This is copied from the tab for the song here)

Intro
E-----------|
B-----------|
g-9-9-------|
d-9-9--9-7--|
a-7-7--9-7--|4x
e------7-5--|

e-------------------|
b-------------------|
g-9--9-9--9-9--9--9-|
d-9--9-9--9-9--9--9-|
a-7--7-7--7-7--7--7-|     2x
e-------------------|

Verse
E--------------------------------------------------------------------|
B--------------------------------------------------------------------|
g---------------------------------------------------------------9----|
d-9-9-9-9-9-9-9-9-9-9-9-9-9-9-9-9-------------------7-7-7-7-8-9--9---|
a-7-7-7-7-7-7-7-7-7-7-7-7-7-7-7-7--7-7-7-7-7-7-7-7--5-5-5-5-6-7---7--|
e----------------------------------5-5-5-5-5-5-5-5-------------------|
PALM MUTED

e---------------------------------|---------------------------------|
b---------------------------------|---------------------------------|
g---------------------------------|-------------------------9---9---|play
d-9-9-9-9-9-9-9-9-9-9-9-9-9-9-9-9-|7-7-7-7-7-7-7-7------------9-----|only
a-7-7-7-7-7-7-7-7-7-7-7-7-7-7-7-7-|5-5-5-5-5-5-5-5-9-9-9-9----------|1st
e------------------------------x2-|----------------7-7-7-7----------|time
PALM MUTED

E-----------------------------------------|
B-----------------------------------------|
G-----------------------------------------|
D-11-11-11-11-11-11-11-11-10-10-10-10--9--|
A--9--9--9--9--9--9--9--9--8--8--8--8--7--|
E-----------------------------------------|

e-------------------|
b-------------------|
g-9--9-9--9-9--9--9-|
d-9--9-9--9-9--9--9-|
a-7--7-7--7-7--7--7-|     2x
e-------------------|

CHORUS
E-----------|
B-----------|
g-9-9-------|
d-9-9--9-7--|
a-7-7--9-7--|4x
e------7-5--|


e---------------------------------|
b---------------------------------|
g-9-9-9-9-9-9-9-9-----------------|
d-9-9-9-9-9-9-9-9-9-9-9-9-7-7-7-7-|
a-7-7-7-7-7-7-7-7-9-9-9-9-7-7-7-7-|     4x
e-----------------7-7-7-7-5-5-5-5-|

SOLO
--17-16-14-----14---------------------------------------|
-----------17-----17-15-14-----17-15-14-----15-14-------|
---------------------------------------16--------16-14--|
--------------------------------------------------------|
--------------------------------------------------------|
--------------------------------------------------------|

------------/14------16-19---16-19---16-19---16-19---16-19--|
----/14-/15--------17------17------17------17------17-------|
-/14--------------------------------------------------------|
------------------------------------------------------------|
------------------------------------------------------------|
------------------------------------------------------------|

----14-17---14-17---14-17---14-17--------------|
--15------15------15------15-------------------|
-----------------------------------------------|
-----------------------------------------------|
-----------------------------------------------|
-----------------------------------------------|

--17-16-14-----14--------------------------------------|
-----------17-----17-15-14---17-15-14-----15-14--------|
--------------------------------------16--------16-14--|
-------------------------------------------------------|
-------------------------------------------------------|
-------------------------------------------------------|

------------/14---------------------------------------------|
-----/14-/15------------------------------------------------|
--/14-----------9-9-9-9-9-9-9-9----------10-10-10-10---9----|
----------------9-9-9-9-9-9-9-9-4-4-4-4--10-10-10-10---9----|
----------------7-7-7-7-7-7-7-7-4-4-4-4---8--8--8--8---7----|
--------------------------------2-2-2-2---------------------|
e-----------------------------------------------------------|
b-----------------------------------------------------------|
g-9--9-9--9-9--9--9-----------------------------------------|
d-9--9-9--9-9--9--9-----------------------------------------|
a-7--7-7--7-7--7--7-----------------------------------------|     2x
e-----------------------------------------------------------|


Order of song:
Intro
Verse
Chorus
Verse
Chorus
Chorus
Solo
Chorus

Hot Summer Nights! (Won't Last Forever)
(Copied from the tab here)

Intro A
E|---------8--------8----8---------------10--------10---10--------|
B|--10--10---10--10---10---10-10---11--11---11--11----11--11--11--|
G|----------------------------------------------------------------|
D|----------------------------------------------------------------|
A|----------------------------------------------------------------|
E|----------------------------------------------------------------|

E|-------6-------6---6--------------8--------8----8---------------|
B|--8--8---8---8---8---8-8---10--10---10--10---10---10--10--------|
G|----------------------------------------------------------------|
D|----------------------------------------------------------------|
A|----------------------------------------------------------------|
E|----------------------------------------------------------------|

Intro B
E|---------8--------8----8---------------10--------10---10--------|
B|--10--10---10--10---10---10-10---11--11---11--11----11--11--11--|
G|----------------------------------------------------------------|
D|----------------------------------------------------------------|
A|----------------------------------------------------------------|
E|----------------------------------------------------------------|

E|-------6-------6---6--------------8----------8---------8--------|
B|--8--8---8---8---8---8-8---10--10---10----10--10----10---10-----|
G|---------------------------------------10--------10---------10--|
D|----------------------------------------------------------------|
A|----------------------------------------------------------------|
E|----------------------------------------------------------------|

Chorus
E|----------------------------------------------------------------|
B|----------------------------------------------------------------|
G|-3-3-3-3--5-5-5-------------------------------------------------|
D|-3-3-3-3--5-5-5--3-3-3-3-3-3-3-3--------------------------------|
A|-1-1-1-1--3-3-3--3-3-3-3-3-3-3-3--------------------------------|
E|-----------------1-1-1-1-1-1-1-1--------------------------------|

E|----------------------------------------------------------------|
B|----------------------------------------------------------------|
G|-3-3-3-3--5-5-5/10-10-10-10-10-10-10-10-------------------------|
D|-3-3-3-3--5-5-5/10-10-10-10-10-10-10-10-------------------------|
A|-1-1-1-1--3-3-3/8--8--8--8--8--8--8--8--------------------------|
E|----------------------------------------------------------------|

E|----------------------------------------------------------------|
B|----------------------------------------------------------------|
G|-3-3-3-3--5-5-5------------------------1010-99------1010-99-----|
D|-3-3-3-3--5-5-5--3-3-3-3-3-3-3-3--77-88-------77-88-------------|
A|-1-1-1-1--3-3-3--3-3-3-3-3-3-3-3--------------------------------|
E|-----------------1-1-1-1-1-1-1-1--------------------------------|

Bridge
E|----------------------------------------------------------------|
B|----------------------------------------------------------------|
G|-3------5------3------5-----------------------------------------|
D|-3------5------3------5-----------------------------------------|
A|-1------3------1------3-----------------------------------------|
E|----------------------------------------------------------------|

Verse
E|-5--5--5----5--5--5/6--6----3--3--3----3--3/5--5----------------|
B|-6--6--6----6--6--6/8--8----4--4--4----4--4/6--6----------------|
G|----------------------------------------------------------------|
D|----------------------------------------------------------------|
A|----------------------------------------------------------------|
E|----------------------------------------------------------------|


Song Order

Intro A x2
Intro B
Chorus x2
Bridge
Verse x2
Intro A x2
Intro B
Verse 1 x2
Verse x4
Chorus x2

Then Keyboard & Mc calling his sweetheart.

Meltdown!
(This is copied from the version 2 tab, although slightly changed)

Verse
Ska up strokes

(Note: It's played this way live, but in the studio recording, the E and A strings are muted)
E|-5-5--5--8--8---8---5-5--5--8--8---10-10---------------------------||
B|-5-5--5--8--8---8---5-5--5--8--8---10-10---------------------------||
G|-6-6--6--9--9---9---6-6--6--9--9---11-11---------------------------||
D|-7-7--7--10-10--10--7-7--7--10-10--12-12---------------------------||
A|-7-7--7--10-10--10--7-7--7--10-10--12-12---------------------------||
E|-5-5--5--8--8---8---5-5--5--8--8---10-10---------------------------||


Chorus/Intro

|-----------------------------------------------------||
|-----------------------------------------------------||
|------------------5555555555555555----------77777777-||
|-7777777777777777-5555555555555555-55555555-77777777-||
|-7777777777777777-3333333333333333-55555555-55555555-||
|-5555555555555555------------------33333333----------||

|---------------------------------||
|---------------------------------||
|---------------------------------||
|-7777777777777777----------------||
|-7777777777777777----------------||
|-5555555555555555----------------||


Solo

|-------------------------------------------------------------------||
|-------------------------------------------------------------------||
|---------------------------------5-5-4-4-5-5-4-4-5-5-4-4-5-5-4-4---||
|-7-7-5-5-7-7-5-5-7-7-5-5-7-7-5-5-----------------------------------||
|-------------------------------------------------------------------||
|-------------------------------------------------------------------||

Solo continued
|-------------------------------------------------------------------||
|---------------------------------5555555555555555b~~~~~~~~~~~~~~~~-||
|-7-7-5-5-7-7-5-5-7-7-5-5-7-7-5-5-----------------------------------||
|-------------------------------------------------------------------||
|-------------------------------------------------------------------||
|-------------------------------------------------------------------||

"I suggest you double the intensity"

|-10b------------||
|--9b------------||
|--8b------------||
|----------------||
|----------------||
|----------------||

Intro x2
Verse x5
Chorus x2
Verse x5
Chorus x2
Solo
Chorus x2
Solo x 2 (In background of chorus)

Mechanical Ape!

Riff (play twice, omit the slide the second time)
e|---------------------------------------------------------------------------|
B|---------------------------------------------------------------------------|
G|------------------------------------------4--------------------------------|
D|------2---------------4--2----------------4--------------------------------|
A|-7\1-0--3-35~~-52-----2-0--3--35~~-52-----2--------------------------------|
E|---------------------------------------------------------------------------|

Verse (play about 8 times)
e|5---5---5---5---5---5---5~~~~~---------------------------------------------|
B|5---5---5---5---5---5---5~~~~~---------------------------------------------|
G|5---5---5---5---5---5---5~~~~~---------------------------------------------|
D|---------------------------------------------------------------------------|
A|---------------------------------------------------------------------------|
E|---------------------------------------------------------------------------|

Chorus (Play about 8 times, then play each note once except for the last one)
e|---------------------------------------------------------------------------|
B|---------------------------------------------------------------------------|
G|---------------------------------------------------------------------------|
D|---------------------------------------------------------------------------|
A|----333555-----------------------------------------------------------------|
E|-555------3333333----------------------------------------------------------|

Order Of Song:
Riff
Verse
Chorus
Verse
Chorus
Riff
Chorus

Demolition Rickshaw!

Intro/Prechorus
e|---------------------------------------------------------------------------|
B|---------------------------------------------------------------------------|
G|---------------------------------------------------------------------------|
D|---------------------------------------------------------------------------|
A|0-2-0-2-0-2-0-2-0-2-0-2-0-2-0-2-0-2-0-2-0-2-0-2-0-2-0-2-0-2-0-2-0-2-0-2----|
E|---------------------------------------------------------------------------|

Verse (Play about 5 times)
e|---------------------------------------------------------------------------|
B|---------------------------------------------------------------------------|
G|-5-5-555-55-5555-55-5-5-55555-55-5555--------------------------------------|
D|-5-5-555-55-5555-55-5-5-55555-55-5555--------------------------------------|
A|-3-3-333-33-3333-33-3-3-33333-33-3333--------------------------------------|
E|---------------------------------------------------------------------------|

Chorus (copied from tTabs.com)
E|-----------------------------------------------------|
B|-----------------------------------------------------|
G|------------------1212121212121212-8888--------------|
D|-1010101010101010-1212121212121212-8888-8-1010101010-|
A|-1010101010101010-1010101010101010-6666-8-1010101010-|
E|-8-8-8-8-8-8-8-8—-----------------------6--8-8-8-8-8-|

Bridge (play six times)
e|---------------------------------------------------------------------------|
B|---------------------------------------------------------------------------|
G|---------------------------------------------------------------------------|
D|---------------------------------------------------------------------------|
A|-5-5-5-5-3-3-3-3-----------------------------------------------------------|
E|-----------------5-5-5-5-3-3-3-3-------------------------------------------|

Order of song:
Intro
Verse
Prechorus
Chorus
Verse
Prechorus
Chorus
Bridge
Chorus x2

Waterslides!
(copied from the tab although changed slightly)

Intro

the intro is just keys and bass but if you want them, the chords are Am G and B.

Intro B
----------------------------------|
----------------------------------|
----------------------------------|
----------------------------------|x 4
--------5-5-7-7-3-3333------------|
-3-3333----------------7-7-5-5----|

Verse
-3-----5-----5-----8--------------|
-3-x4--6-x4--5-x4--8-x4-----------|
-4-----7-----5-----9--------------| remember to only play upsrokes
----------------------------------|
----------------------------------|
----------------------------------|

Pre-Chorus

same as intro A

Chorus
-3---5---7---3--------------------|
-3---7---8---5--------------------|
-4---7---9---5--------------------|figure out the strum pattern
-5---7---9---5--------------------|by listening to the song
-5---5---7---3--------------------|
-3--------------------------------|

Hook
its played over the verse chords

----------------------------------|
----------------------------------|
----------------------------------|
----------------------------------|
--------2-5~~--5-7-5-7-5~~--------|
-3~~--3---------------------------|

----------------------------------|
----------------------------------|
----------------------------------|
----------------------------------|
-5-5-3~--2-3-2-3-2----------------|
--------------------3-------------|

----------------------------------|
----------------------------------|
----------------------------------|x2
----------------------------------|
-----------------55-3-2-3-2-3-2~--|
-3-3-5--3-5-5-3~~-----------------|


Song Order

Intro A x2
Intro B x4
Verse x4
Interlude (keys only)
Verse x4
Intro A x1
Chorus x4
Hook x2
Bridge (no guitar)
Chorus x8
Intro B x2
Intro A x2
Am Chord to resolve tension

"Meanwhile, back in the awesome throne room..."

Awesome Forces!
(copied from the tab for it on this site)

Intro:

                                     1st and 3rd       2nd                4th
|-----------9-12-9-12-9-----------|------------------|------------------|------------------------|
|-----10-12--------------12--10---|------------------|------------------|------------------------|
|o--9----------------------------o|--9--11-9---9-11--|--9--10-10--10-9--|--9--10--10-10-9-9------|
|o-------------------------------o|------------------|------------------|--------------------7~--|
|---------------------------------|------------------|------------------|------------------------|
|---------------------------------|------------------|------------------|------------------------|

Intro/Chorus Guitar 2

       A         F#        A     F  F  F  E
|--------------------------------------------|
|--------------------------------------------|
|--------------------------------10-10-10-9--|
|--77777777--44444444--77777777--10-10-10-9--|
|--77777777--44444444--77777777--8--8--8--7--|
|--55555555--22222222--55555555--------------|

Verse (both guitars):

      A         F#        B          D
|------------------------------------------|
|------------------------------------------|
|----------------------44444444--77777777--|
|--77777777--44444444--44444444--77777777--|
|--77777777--44444444--22222222--55555555--|
|--55555555--22222222----------------------|

Solo:

|----------------------------------------------------|
|----------------------------------------------------|
|-----6---6-6-6-4---4----------4----4-6-4----4-6-6~--|
|--/7-------------7-----4~---7---4----------7--------|
|----------------------------------------------------|
|----------------------------------------------------|

|-----------------------------------------------------|
|----------5-5----------------------------------------|
|-----6--------6-4-6-----------4-----4-6-4----4-6-6~--|
|--/7-----------------4~-----7---4----------7---------|
|-----------------------------------------------------|
|-----------------------------------------------------|

|-------------------------|
|-------------------------|
|----6---7-6--------------|
|--7---7-------9-7-9-7-7--|x3
|------------9------------|
|-------------------------|

Order of song:
Intro
Verse
Chorus
Verse
Chorus
Solo
Chorus


Well, that's all. Please ignore the fact that I am only 12 years old, this took a lot of 
careful listening and for a few songs watching video. Also, I already have 
contributions to this site.
Peace.
comments
We did not receive enough feedback on this tab! Please rate:
print report bad tab
1 2 3 4 5
I want to post or [tab]
guest
You may want to rate the tab now too:
select rating
Please do not post tabs as comments. Select "correction" instead!