Oops, an error
Loading. Please wait.

The First Big Weekend Tab

2,267 views 3 this week
no commentswrite comment
1 2 3 4 5
excellent!
x 3
Autoscroll
+/-
esc
set tempo
stop
WARNING: You are trying to view
                                    content from Ultimate-Guitar.com
                                    in an unauthorized application,
                                    which is prohibited.

                                    Please use an official Ultimate
                                    Guitar Tabs application for iPhone,
                                    iPad or Android to access legitimate
                                    chords, guitar, bass, and drum tabs
                                    from Ultimate-Guitar.com database.

                                    Type "ultimate guitar tabs" in Apple
                                    App Store's or Android Market's
                                    search to find the application.
The First Big Weekend
transcribed by Clark Taylor
Just the basics, there are some variations which I may add later.
Intro:
D G# D G# D A#
e:-|-----------------------------|-------------------------|---------------------|--------|
b:-|-----------------------------|-------------------------|---------------------|--------|
g:-|-----------------------------|-------------------------|---------------------|--------|
D:-|----------(1)----------------|-------1------(1)-\------|-------1------1-\----|--------|
A:-|----10-10-----(10)\-6-/-(8)--|----10-----10-------6-/--|----10-----10-----8--|--------|
E:-|--8-----------------4-/-(6)--|--8------8----------4-/--|--8------8--------6--|--------|
So that was...
D A# D G#
e:-|---------------------------------|---------------------|------------------------------|
b:-|---------------------------------|---------------------|------------------------------|
g:-|---------------------------------|---------------------|------------------------------|
D:-|-------1--------1-------1-----1--|-------1------1-\----|------------------------------|
A:-|----10-----10-----8---8-----8----|----10-----10---\-6--|------------------------------|
E:-|--8------8----8-----6-----6------|--8------8--------4--|------------------------------|
...Then on Friday night we went through to the Arches...
Verse 1: (repeat)
D G# A#
e:-|-------------------------------------------------------|-------------------------------|
b:-|-------------------------------------------------------|-------------------------------|
g:-|-------------------------------------------------------|-------------------------------|
D:-|-------1------1-----1-1---1-1-----1-----1---1---1---1--|-------------------------------|
A:-|----10-----10---8---------------8-----8---8---8---8----|-------------------------------|
E:-|--8------8--------4-----4-----6-----6------------------|-------------------------------|
Lyrics:
There was only one car going so some of us had to get the train.
We got through quite late. Then we went to a pub to take the gear.
There was no problems getting in.
We saw some others waiting down the front of the queue so we skipped in.
It was a good night. Everyone was nutted and I ended up dancing with some blonde girl.
I thought she had been quite pretty,
Until last night when Matthew informed me that she had, in fact, been a pig.
Middle: (repeat)
D G A# D G A# D G A#
e:-|---------------------------|---------------------------|------------------------------|
b:-|---------------------------|---------------------------|------------------------------|
g:-|---------------------------|---------------------------|-*--------------------------*-|
D:-|-------1------1-----1---1--|-------1------1-----1---1--|-*-------1------1-----1---1-*-|
A:-|----10------6-----8---8----|----10------6-----8---8----|------10------6-----8---8-----|
E:-|--8-------4-----6----------|--8-------4-----6----------|----8-------4-----6-----------|
Lyrics:
When the club finished we wandered the streets for a while until we go to this 24-hour cafe,
I didn't like the look of it so we left and got a taxi back to Morag's flat.
I couldn't sleep so I sat about drinking someone else's strawberry tonic wine,
And tried to keep everyone else up.
Verse 2: (repeat)
D G# A# D G# A#
e:-|-------------------------------------|-------------------------------------|----------|
b:-|-------------------------------------|-------------------------------------|----------|
g:-|-------------------------------------|-------------------------------------|----------|
D:-|-------------------------------------|-------------------------------------|----------|
A:-|--10-10-10-10-6-6-6-8-8-8-8-8-8-8-8--|--10-10-10-10-6-6-6-8-8-8-8-8-8-8-8--|----------|
E:-|---8--8--8--8-4-4-4-6-6-6-6-6-6-6-6--|---8--8--8--8-4-4-4-6-6-6-6-6-6-6-6--|----------|
Lyrics:
Then at ten o'clock in the morning we went downstairs to buy some drink.
We had intended to watch the football in the afternoon but we'd passed out by then,
And slept right through it, awaking to find that England had won two-nil.
Then we went to get the train home and had a few in the station bar.
We had some stuff left from the previous night's supplies,
So when we got home we decided to go down to John's indie disco.
Same story as Friday - lots of hugging, lots of dancing etc. etc.
We couldn't sleep again so went up the park to look at the tomb,
Taking a detour through the playpark.
To get in we had to climb over a ten foot steel fence,
Which resulted in severe bruising of our hands, legs and groins.
But we had a good laugh on the stuff,
Especially the tube-slide, which probably doubles up as a urinal for drunk teens.
Then we walked through the woods to have a look at the tomb.
It was a big disappointment, but the mist on the lake was cool.
Verse 3: (repeat)
F C# D# F C# D# F C# D# F C# D#
e:-|-------------------|-------------------|-------------------|-------------------|------|
b:-|---8---4---6-------|---8---4---6-------|---8---4---6-------|---8---4---6-------|------|
g:-|--10---6---8-------|--10---6---8-------|--10---6---8-------|--10---6---8-------|------|
D:-|--10---6---8-------|--10---6---8-------|--10---6---8-------|--10---6---8-------|------|
A:-|---8---4---6-------|---8---4---6-------|---8---4---6-------|---8---4---6-------|------|
E:-|-------------------|-------------------|-------------------|-------------------|------|
Sunday afternoon we go up to John's with a lot of beer in time to watch the Simpsons
It was a really good episode about love always ending in tragedy,
Except, of course, for Marge and Homer.
It was quite moving at the end and to tell you the truth my eyes were a bit damp.
Then we watched these young girls in swimsuits have a water fight in the street.
We went up to the pub about ten.
It was busy for a Sunday night, lots of people we know,
Including my first ever girlfriend who I still find very attractive, quite frankly,
But I didn't really speak to her...She's probably still a bitch, anyway.
Her friend Gillian was there, I had a chat with her, she was still quite pleasant.
At the same time I watched Malcolm make some terrible attempt,
To try and chat up a girl we know called Jo.
He made some remark about her skirt that was barely there the previous night or something.
I couldn't sleep again that night, thanks to some seriously disturbing nightmares.
Matthew says I should cut down on the cheese.
Chorus: (repeat)
ACOUSTIC
D G# A# D G# A# repeat x3
e:-|-------------------------------------|-------------------------------------|----------|
b:-|-------------------------------------|-------------------------------------|----------|
g:-|-------------------------------------|-------------------------------------|----------|
D:-|-------------------------------------|-------------------------------------|----------|
A:-|--10-10-10-10-6-6-6-8-8-8-8-8-8-8-8--|--10-10-10-10-6-6-6-8-8-8-8-8-8-8-8--|----------|
E:-|---8--8--8--8-4-4-4-6-6-6-6-6-6-6-6--|---8--8--8--8-4-4-4-6-6-6-6-6-6-6-6--|----------|
Went out for the weekend, it lasted for ever, high with our friends it's officially summer
ACOUSTIC PART
D G# A# D G# A#
e:-|-------------------------------------|-------------------------------------|----------|
b:-|-------------------------------------|-------------------------------------|----------|
g:-|-------------------------------------|-------------------------------------|----------|
D:-|-------------------------------------|-------------------------------------|----------|
A:-|--10-10-10-10-6-6-6-8-8-8-8-8-8-8-8--|--10-10-10-10-6-6-6-8-8-8-8-8-8-8-8--|----------|
E:-|---8--8--8--8-4-4-4-6-6-6-6-6-6-6-6--|---8--8--8--8-4-4-4-6-6-6-6-6-6-6-6--|----------|
ELECTRIC PART
F C# D# F C# D# F C# D# F C# D#
e:-|-------------------|-------------------|-------------------|-------------------|------|
b:-|---8---4---6-------|---8---4---6-------|---8---4---6-------|---8---4---6-------|------|
g:-|--10---6---8-------|--10---6---8-------|--10---6---8-------|--10---6---8-------|------|
D:-|--10---6---8-------|--10---6---8-------|--10---6---8-------|--10---6---8-------|------|
A:-|---8---4---6-------|---8---4---6-------|---8---4---6-------|---8---4---6-------|------|
E:-|-------------------|-------------------|-------------------|-------------------|------|
(Went out for the weekend, it lasted for ever, high with our friends it's officially summer)
I got some sleep eventually on Monday afternoon.
It was a beautiful day, and later that evening Malcolm,
Introduced me to the power of Merrydown. £1.79 a litre, 8.2% - Mmmmmm!
Judith and Laura came round later and we sat in my back garden and drank.
Then Matthew came round and we went up the town.
It's officially summer.
comments
We did not receive enough feedback on this tab! Please rate:
print report bad tab
1 2 3 4 5
I want to post or [tab]
guest
You may want to rate the tab now too:
select rating
Please do not post tabs as comments. Select "correction" instead!