Oops, an error
Loading. Please wait.

Arash Tab

3,029 views 15 this week
no commentswrite comment
1 2 3 4 5
excellent!
x 2
Autoscroll
+/-
esc
set tempo
stop
Contributor
Difficulty
novice
Hey! There's an official Ultimate Guitar app which is ideal
for learning songs when you're away from computer. Get the app
WARNING: You are trying to view
                                    content from Ultimate-Guitar.com
                                    in an unauthorized application,
                                    which is prohibited.

                                    Please use an official Ultimate
                                    Guitar Tabs application for iPhone,
                                    iPad or Android to access legitimate
                                    chords, guitar, bass, and drum tabs
                                    from Ultimate-Guitar.com database.

                                    Type "ultimate guitar tabs" in Apple
                                    App Store's or Android Market's
                                    search to find the application.
This song can be played two ways. The original song is played in Capo3.
It sounds just as nice without the capo though if you'd like to play
something more acoustic and within your vocal range perhaps.
Theres tons of international people from around the world who
love Arash's songs though they dont understand the lyrics.
good luck to you guys playing this.
As for my persian buddies, SALAAM AZIZAN KHEILI BAHALIN. bezan berim lol

(Helena - [no chords])
Arash behet migam dooset daram
Toe ein donya faghat toro daram
Araaaash bi to man tanhayam
Gooshet ba man bashe toro dost daram.

Intro Chords: Am F Dm Em

Intro Tab:

E---------------------------|
B--------------------1------|
G--0--2--0--2-----2-----2---|   [X3]
A---------------------------|
D---------------------------|
E---------------------------|

E--0--1--0--1--3--1--0--1--0---|
B------------------------------|
G------------------------------|
A------------------------------|
D------------------------------|
E------------------------------|


(Arash)
Am                           F
Tak o tahna toe ein otagh bi to hastam
Dm                         Em
Hala bi to inja dar be dar baroon mibare
Am                      F
Toe ein shabe bahari to door az man
Dm               Em
Bia einja setare be man begu are.

(Helena)
Am              F
Are are bahare, miam pishet dobare
Dm
Arash bi to sardame
Em
Ey eshghe man
Am               F
Are are bahare, emshab del bigharare
Dm                  Em
Arash to male mani, ey eshghe man.

(Arash)
Am                 F
Zendegi ba to khey-li khobe
Dm                       Em
Harvaght to einja hasti, hamash bahare
Am                       F
Dast be dast nazanim, ba ham bashim
Dm               Em
Esmamo seda kon, be man begu are.

(Helena)
Am              F
Are are bahare, miam pishet dobare
Dm
Arash bi to sardame
Em
Ey eshghe man
Am              F
Are are bahare, emshab del bigharare
Dm                  Em
Arash to male manĂ¯, ey eshghe man.

*Instrumental* Ahhh...hell. i'll tab it out for you all. =]

E-----5----------------------|
B----------1--1--3-----1-----|
G--2----2-----------2-----2--|
D----------------------------|
A----------------------------|
E----------------------------|

E-----0-----------------------0------|
B-----------1-----1--------------1---|
G--2-----2-----2-----2--2--2---------|
D------------------------------------|
A------------------------------------|
E------------------------------------|

E--1-----0--------0---------|
B-----3--------3--------3---|
G-----------2--------2------|
D---------------------------|
A---------------------------|
E---------------------------|

E-----1--0------------------------------|
B--3--------1--3--1--0--1--0------------|
G-----------------------------2--2--2---|
D---------------------------------------|
A---------------------------------------|
E---------------------------------------|

(Arash)
Am
Oooooo oho oh ho
F
Oooooo oho oh ho
Dm
Oooooo oho oh ho
Em
Oho hoo ooo ho

(Helena)
does her oohhs and ahhs.
Same chords

Am
ooooooooo
F
ooooooooooo
Dm
fa la la la la la la la
Em
fa la la la la la la

(Helena)
Am              F
Are are bahare, miam pishet dobare
Dm
Arash bi to sardame
Em
Ey eshghe man
Am              F
Are are bahare, emshab del bigharare
Dm                  Em
Arash to male manĂ¯, ey eshghe man. [X3]

Thats all there is to it. Have fun playing doostane aziz.
comments
We did not receive enough feedback on this tab! Please rate:
print report bad tab
1 2 3 4 5
I want to post or [tab]
guest
You may want to rate the tab now too:
select rating
Please do not post tabs as comments. Select "correction" instead!