Oops, an error
Loading. Please wait.

Rouen Tab

2,256 views 9 this week
no commentswrite comment
1 2 3 4 5
excellent!
x 7
add to favorites launch autoscroll
font size
0
reset
Autoscroll
+/-
esc
set tempo
stop
Contributor
WARNING: You are trying to view
                                    content from Ultimate-Guitar.com
                                    in an unauthorized application,
                                    which is prohibited.

                                    Please use an official Ultimate
                                    Guitar Tabs application for iPhone,
                                    iPad or Android to access legitimate
                                    chords, guitar, bass, and drum tabs
                                    from Ultimate-Guitar.com database.

                                    Type "ultimate guitar tabs" in Apple
                                    App Store's or Android Market's
                                    search to find the application.
Song: Rouen
Artist: Arcane Roots
Album: Left Fire

                                           G#min7
   Bmin   F#  A/sus4  E7  Emin7  Emin  Bmin  b5   Gmaj7 
e|--2--|--2--|-----|--4--|--3--|-----|-----|-----|-----|
B|--3--|--2--|-2/3-|--3--|--3--|--8--|--3--|--3--|--3--|
G|--4--|--3--|--2--|--4--|--4--|--9--|--4--|--4--|--4--|
D|--4--|--4--|--2--|--2--|--2--|--9--|--4--|--4--|--4--|
A|--2--|--4--|--0--|-----|-----|--7--|--2--|--x--|--x--|
E|-----|--2--|-----|-----|-----|-----|-----|--4--|--3--|

e|-----------2-----------------2-------------------------------4-----3-------|
B|-3-------------3----2-------------2---2---------3p2-----2h3----3-----3-----|
G|-------4-------4---------3--------3---------2-----------2--------4-----4---|  x3
D|----4---4----4--------4---4--4--4--------2---2--2---2-----2----------------|
A|-2------------------------------------0------------------------------------|
E|--------------------2------------------------------------------------------|

e|-----------2-----------------2-------------------------------4-----10------|
B|-3-------------3----2-------------2---2---------3p2-----2h3----3------8----|
G|-------4-------4---------3--------3---------2-----------2--------4------9--|  
D|----4---4----4--------4---4--4--4--------2---2--2---2-----2---------7------|
A|-2------------------------------------0------------------------------------|
E|--------------------2------------------------------------------------------|

e|--------------------------------------|
B|-----8p7-------3p2--------------------|
G|-----9---9-----4----4p2---2h4-4-------|  x3
D|---------9----------4-----4---4-------|
A|-(7)-------(2)------------------------|
E|-------------------------(4)-----(3)--|

e|--------------------------|
B|-----8p7------3p2---------|
G|-----9---9----4---4p2--4--|
D|---------9---------4---4--|
A|-(7)-------(2)------------|
E|----------------------(4)-|

Pre-verse:

e|-------------------------------------------------------------------------------------------------|
B|---------33-----33---------------33-----33-----------------33-----33---33---------33-----33---33-|
G|---------44-----44---------------44-----44-----------------44-----44---44---------44-----44---44-|x2
D|---------44-----44---------------44-----44-----------------44-----44---44---------44-----44---44-|
A|-2p0h2p0----2-0----0h2p0-2p0h2p0----2-0----0h2---------------------------------------------------|
E|-------------------------------------------------004-004-00---4-4----4----3p0h3p0----3-3----3----|

Verse 1:

e|------0------------3------------0-------------2----------------------------------------------------|
B|---------3------------0------------3---------(0)---------------------------------------------------|
G|--4--------4---4--------4---4--------4---4---------------------------------------------------------|
D|4---4--------5---5--------4---4--------5---5-------------------------------------------------------|
A|-------------------------------------------------------5---------5-------5-------5---------5------5|
E|-------------------------------------------------4p0h4---0h4p0h4---0h4p0---3p0h3---0h3p0h3---0h3p0-|

Pre Chorus:

e|-----------------------------------------------------------------------------------------------|
B|-------8-------------3-------------------------------------------------8-------------3---------|
G|---9------9------4------4---4--------4---------------4------------9------9------4----4----4----|
D|-----9-------9-----4------4------4-------4---4---4-------4---4------9-------9-----4-------4----|
A|-7-------------2------------------------------------------------7-------------2----------------|
E|-------------------------------4---4---4---4---3---3---3---3------------------------------4----|

Chorus:

e|------------------------------------------------------------------|
B|-x-----x-----x-x-x-----x-------x------x-------x-x-x------x--------|
G|-7-----7-----6-x-6-----6------12-----12------11-x-11-----11-------|
D|-x-----x-----x-x-x-----x-------x------x-------x-x-x--x---x---x----|
A|----x----x-x--------x-----x-------x------x-x---------x-------x----|
E|----7----7-x--------5-----5-------12----12-x---------10------10---|

e|------------------------------------------------------------------|
B|-x-----x-----x-x-x-----x-------x------x-------x-x-x-----7-8-7-----|
G|-7-----7-----6-x-6-----6------12-----12------11-x-11----------9---|
D|-x-----x-----x-x-x-----x-------x------x-------x-x-x--x------------|
A|----x----x-x--------x-----x-------x------x-x---------x------------|
E|----7----7-x--------5-----5-------12----12-x---------10-----------|

e|------------------------------------------------------------------|
B|-x-----x-----x-x-x-----x------x------x-------x-x-x-----x----------|
G|-7-----7-----6-x-6-----6-----12-----12------11-x-11---11----------|  x2
D|-x--x--x-x-x-x-x-x--x--x-x----x------x--x-x--x-x-x--x--x---x------|
A|----x----x-x--------x----x-------x-----12-x---------x------x------|
E|----7----7-x--------5----5-------12-----x-x---------10----10s\----|

Pre Verse:

e|-------------------------------------------------------------------------------------------------|
B|---------33-----33---------------33-----33-----------------33-----33---33---------33-----33---33-|
G|---------44-----44---------------44-----44-----------------44-----44---44---------44-----44---44-|x2
D|---------44-----44---------------44-----44-----------------44-----44---44---------44-----44---44-|
A|-2p0h2p0----2-0----0h2p0-2p0h2p0----2-0----0h2---------------------------------------------------|
E|-------------------------------------------------004-004-00---4-4----4----3p0h3p0----3-3----3----|


 Verse 2:

e|------0------------3------------0-------------2----------------------------------------------------|
B|---------3------------0------------3---------(0)---------------------------------------------------|
G|--4--------4---4--------4---4--------4---4---------------------------------------------------------|
D|4---4--------5---5--------4---4--------5---5-------------------------------------------------------|
A|-------------------------------------------------------5---------5-------5-------5---------5------5|
E|-------------------------------------------------4p0h4---0h4p0h4---0h4p0---3p0h3---0h3p0h3---0h3p0-|

Pre Chorus:

e|-----------------------------------------------------------------------------------------------|
B|-------8-------------3-------------------------------------------------8-------------3---------|
G|---9------9------4------4---4--------4---------------4------------9------9------4----4----4----|
D|-----9-------9-----4------4------4-------4---4---4-------4---4------9-------9-----4-------4----|
A|-7-------------2------------------------------------------------7-------------2----------------|
E|-------------------------------4---4---4---4---3---3---3---3------------------------------4----|

Chorus:

e|------------------------------------------------------------------|
B|-x-----x-----x-x-x-----x-------x------x-------x-x-x------x--------|
G|-7-----7-----6-x-6-----6------12-----12------11-x-11-----11-------|
D|-x-----x-----x-x-x-----x-------x------x-------x-x-x--x---x---x----|
A|----x----x-x--------x-----x-------x------x-x---------x-------x----|
E|----7----7-x--------5-----5-------12----12-x---------10------10---|

e|------------------------------------------------------------------|
B|-x-----x-----x-x-x-----x-------x------x-------x-x-x-----7-8-7-----|
G|-7-----7-----6-x-6-----6------12-----12------11-x-11----------9---|
D|-x-----x-----x-x-x-----x-------x------x-------x-x-x--x------------|
A|----x----x-x--------x-----x-------x------x-x---------x------------|
E|----7----7-x--------5-----5-------12----12-x---------10-----------|


e|------------------------------------------------------------------|
B|-x-----x-----x-x-x-----x------x------x-------x-x-x-----x----------|
G|-7-----7-----6-x-6-----6-----12-----12------11-x-11---11----------|  x2
D|-x--x--x-x-x-x-x-x--x--x-x----x------x--x-x--x-x-x--x--x---x------|
A|----x----x-x--------x----x-------x-----12-x---------x------x------|
E|----7----7-x--------5----5-------12-----x-x---------10----10s\----|


Bridge:

e|-------------------------------------------------0--0-0-0-0-0-0--------------------0--0-0-0-0-0-0-0-|
B|------------------------------x--x-x-x-x-(0)-(0)-0--0-0-0-0-0-0-x--x-x-x-x-(0)-(0)-0--0-0-0-0-0-0-0-|
G|------------------------------4--4-4-4-4-s/6-s\4-3--3-3-3-3-3-3-4--4-4-4-4-s/6-s\4-3--3-3-3-3-3-3-3-|
D|9-9-9-9-9-9-9-9-8-8-8-8-8-8-8-0--0-0-0-0-(0)-(0)-4--4-4-4-4-4-4-0--0-0-0-0-(0)-(0)-4--4-4-4-4-4-4-4-|
A|9-9-9-9-9-9-9-9-9-9-9-9-9-9-9-2--2-2-2-2-s/4-s\2-4--4-4-4-4-4-4-2--2-2-2-2-s/4-s\2-4--4-4-4-4-4-4-4-|
E|7-7-7-7-7-7-7-7-7-7-7-7-7-7-7-3--3-3-3-3---------2--2-2-2-2-2-2-3--3-3-3-3---------2--2-2-2-2-2-2-2-|

e|-2-|
B|-3-|
G|-4-|
D|-4-|
A|-2-|
E|---|

Same chords as intro:

e|-2--2--------4---3-|
B|-3--2---2/3--3---3-|
G|-4--3---2----4---4-| x1 (fingerpicking)
D|-4--4---2----2---2-|
A|-2--4---0----------|
E|----2--------------|

e|--2------2------------4------3-----|
B|--3------2-----2/3----3------3-----|
G|--4-x16--3-x16-2-x16--4-x16--4-x16-|  strumming x1
D|--4------4-----2------2------2-----|
A|--2------4-----0-------------------|
E|---------2-------------------------|

Outro:

e|----------------------------------------------------------------------------------------------------|
B|----x-x------------------------------(0)-----------------------------(0)--------x-x-----------------|
G|----7-6b------x-x------3---4---3------7-6b------x-x------3---4--<3>---7-6b------9-10b----3---4--3---|
D|----x-x-x-x-x-9-8b-444-4-4-4-4-4------x-x-x-x-x-9-8b-444-4-4-4-4------x-x-x-x-x-x-x--444-4-4-4-4-4--|
A|-x-x----x-x-x-x-x--444-4-4-4-4-4---x-x----x-x-x-x-x--444-4-4-4-4---x-x----x-x-x------444-4-4-4-4-4--|
E|-7-7----7-7-7------222-2-2-2-2-2-0-7-7----7-7-7------222-2-2-2-2---7-7----7-7-7------222-2-2-2-2-2-2|

e|------------------------------|
B|---x-------------------0------|
G|---4----4s/6-66-6s\4-4-3------|  x2
D|---0-x4----------------4-x8---|
A|---2----2s/4-44-4s\2-2-4------|
E|---3-------------------2------|

e|----------------------------------------------------------------------------------------------------|
B|----x-x------------------------------(0)-----------------------------(0)--------x-x-----------------|
G|----7-6b------x-x------3---4---3------7-6b------x-x------3---4--<3>---7-6b------9-10b----3---4--3---|
D|----x-x-x-x-x-9-8b-444-4-4-4-4-4------x-x-x-x-x-9-8b-444-4-4-4-4------x-x-x-x-x-x-x--444-4-4-4-4-4--|
A|-x-x----x-x-x-x-x--444-4-4-4-4-4---x-x----x-x-x-x-x--444-4-4-4-4---x-x----x-x-x------444-4-4-4-4-4--|
E|-7-7----7-7-7------222-2-2-2-2-2-0-7-7----7-7-7------222-2-2-2-2---7-7----7-7-7------222-2-2-2-2-2-2|

e|------------------------------|
B|---x-------------------0------|
G|---4----4s/6-66-6s\4-4-3------|
D|---0-x4----------------4-x8---|
A|---2----2s/4-44-4s\2-2-4------|
E|---3-------------------2------|

e|----------------------------------|
B|---x-------------------0----------|
G|---4----4s/6-66-6s\4-4-3------3-3-|  
D|---0-x4----------------4-x6-444-4-|
A|---2----2s/4-44-4s\2-2-4----444-4-|
E|---3-------------------2----222-2-|

End

Hope you enjoy and feel free to rate :P
comments
print report bad tab
I want to post or [tab]
guest
You may want to rate the tab now too:
select rating
Please do not post tabs as comments. Select "correction" instead!