Oops, an error
Loading. Please wait.

Bury Me An Angel Tab

ver3
ver3

Whole song

Interactive

More versions @911Tabs.com
145 views 1 this week
no commentswrite comment
1 2 3 4 5
please rate
add to favorites launch autoscroll
font size
0
reset
Autoscroll
+/-
esc
set tempo
stop
Contributor
Difficulty
Tuning
advanced
B E A D F# B
WARNING: You are trying to view
                                    content from Ultimate-Guitar.com
                                    in an unauthorized application,
                                    which is prohibited.

                                    Please use an official Ultimate
                                    Guitar Tabs application for iPhone,
                                    iPad or Android to access legitimate
                                    chords, guitar, bass, and drum tabs
                                    from Ultimate-Guitar.com database.

                                    Type "ultimate guitar tabs" in Apple
                                    App Store's or Android Market's
                                    search to find the application.
/---------------------------------------------------------------------------/
/    The following is the author's own interpretation of the song, to be    /
/                     used for private use and studying                     /
/---------------------------------------------------------------------------/

                   ARCH ENEMY - BURY ME AN ANGEL
                     From the Album BLACK EARTH
             Copyright 1996 W.A.R. (WRONG AGAIN RECORDS)

                     Version 666 - FEBRUARY 2005

Transcribed by: Death8699 & Scott King

For Questions, Comments, Newest Version, or Corrections contact
 Death8699: at MethylinInfo@aol.com



..  - palm mute          /  - slide up to
 \  - slide down to      ~  - vibrato
 h  - hammer on          b  - bend
 p  - pull off            Suffixes for bend
                          ph - pinch harmonic
                           f - full bend    h - half bend
*  - see comment           r - release      t - tap bend
X  - percussion mute       ~ - vibrato bend
@  - slight palm mute     () - ghost note, sustained note

Tune Gtr to B (2.5 Steps Down)

--BURY ME AN ANGEL--

|Riff A|
||-------------------------------------------------------------------||
||-------------------------------------------------------------------||
||:-----------------------------------------------------------------:||
||:-------------------------------------------------8_9-------------:||
||--------------5_8----------5_8----------------5_8--h-7_8-5_7-7_8---||
||--00000000-5_7-h--00000000--h-5_7-00000000-5_7-h------h---h---h----||
    ........  h     ........     h  ........  h


 |Riff B|
||---------------------------------------------------------------------------||
||---------------------------------------------------------------------------||
||:-------------------------------------------------------------------------:||
||:-----9_6-----------------------------9_6---------------------6_8_9-------:||
||-------p------8_5-------------5_8------p------8_5-------5_7_8--h-h--5_7_8--||
||--000-----000--p--000-7_4-000--h--000-----000--p--5_7_8--h-h---------h-h---||
    ...     ...     ...  p  ...     ...     ...      h h


 |Riff C|
||-----------------------------------------------------------------------|
||-----------------------------------------------------------------------|
||:-14-16-17-----14-16--13-14-16----------14-16-17-----14-16--13-14-16---|
||:----------15------------------14~~--------------15--------------------|
||-----------------------------------------------------------------------|
||-----------------------------------------------------------------------|
||                                                                       |
||--------12------------------------------------12-----------------------|
||--13-15--------13-15--12-13-12----------13-15--------13-15--12-13-15---|
||:----------14------------------14~~--------------14--------------------|
||:----------------------------------------------------------------------|
||-----------------------------------------------------------------------|
||-----------------------------------------------------------------------|
||                                                                       |
||-----------------------------------------------------------------------|
||-----------------------------------------------------------------------|
||:----------------------------------------------------------------------|
||:-2---------------------2---------------2------------------------------|
||--0------3-------2------0---------------0-------3---------2------5-----|
||---------1-------0------------------------------1---------0------3-----|

 |-------------||
 |-------------||
 |-16bf17-16~-:||
 |------------:||
 |-------------||
 |-------------||
 |             ||
 |-------------||
 |-15bf17-15~--||
 |------------:||
 |------------:||
 |-------------||
 |-------------||
 |             ||
 |-------------||
 |-------------||
 |------------:||
 |------------:||
 |-------------||
 |-3~----------||


 |RIFF D|
||------------------------------------------------------------------------|
||-----------------------------------------13bf15~------------------------|
||:-14-16-17-14~---14-16-17-14~---14-16-17---------14-17-16-14-16-14--14\-|
||:-----------------------------------------------------------------17--sl|
||------------------------------------------------------------------------|
||------------------------------------------------------------------------|
||                                                                        |
||--------12-------------12-------------12-12bf14~------------------------|
||--13-15----13~---13-15----13~---13-15------------13-13_17_13-12_13-13~\-|
||:-----------------------------------------------------h--p-----h------sl|
||:-----------------------------------------------------------------------|
||------------------------------------------------------------------------|
||------------------------------------------------------------------------|
||                                                                        |
||------------------------------------------------------------------------|
||------------------------------------------------------------------------|
||:-----------------------------------------------------------------------|
||:--------7-------7---------6-------6---------5-------5---------4------4-|
||------------------------------------------------------------------------|
||--5-555-----555-----4-444-----444-----3-333-----333-----2-222-----222---|
      ...     ...       ...     ...       ...     ...       ...     ...

 |-----------------------||
 |-----------------------||
 |----------------------:||
 |-7"-6"-5"-4~----------:||
 |-------------2---------||
 |-------------0---------||
 |                       ||
 |-----------------------||
 |-----------------------||
 |----------------------:||
 |-7"-6"-5"-4~----------:||
 |-------------2---------||
 |-------------0---------||


 |RIFF E|
||----------------------------------------------------------------------|
||----------------------------------------------------------------------|
||----------------------------------------------------------------------|
||----------------------------------------------------------------------|
||----------------------------------------------------------------------|
||----------------------------------------------------------------------|
||                                                                      |
||                                                                      |
||----------------------------------------------------------------------|
||----------------------------------------------------------------------|
||-------14/15-14\--------------------------------14/15-----------------|
||-------11/12-11\-------------7------------------11/12-----------------|
||-2-2---12/13-12\---2---5--7--5--8--7--5---2-2---12/13-12\---2---5--7--|
||-0-0----sl-----sl--0---3--5-----6--5--3---0-0----sl-----sl--0---3--5--|
   . .               .                      . .

 |----------------------------------------------------------------------|
 |----------------------------------------------------------------------|
 |----------------------------------------------------------------------|
 |----------------------------------------------------------------------|
 |----5---2-------------------------------------------(2)---------------|
 |----3---0-------------------------------------------(0)---------------|
 |                                                                      |
 |----------------------------------------------------------------------|
 |----------------------------------------------------------------------|
 |------------------------------------------------------------------p.h.|
 |-7------------------11/12-----------------7-----------------11--------|
 |-5--7----------2-2--12/13-12\---2---5--7--5--8--7--5---2-2--12_13-12~\|
 |-------17\-----0-0---sl-----sl--0---3--5-----6--5--3---0-0----h-----sl|
           sl    . .                                     . .


 |-------------12bh13--12bh13~------------------------------------------|
 |----------------------------------------------------------------------|
 |----------------------------------------------------------------------|
 |------------------------------------11/12------------------7----------|
 |----5--2-----------------------2-2--12/13-12~\---2---5--7--5--8--7--5-|
 |----3--0--0--------------------0-0---sl------sl--0---3--5-----6--5--3-|
 |          .                    . .                                    |
 |                                                                      |
 |----------------------------------------------------------------------|
 |-------------15bf17--15bf17~------------------------------------------|
 |----------------------------------------------------------------------|
 |-----------------------------------------------------------7----------|
 |----5--2-----------------------2-2--12_13-12~\---2---5--7--5--8--7--5-|
 |-0--3--0--0--------------------0-0----h------sl--0---3--5-----6--5--3-|
   .        .                    . .
 
 |----------------------------------------------------------------------|
 |----------------------------------------------------------------------|
 |----------------------------------------------------------------------|
 |------11_12-11~\------------7-9-9--------------------------------7----|
 |-2-2----h------sl-2---5--7--5-7-7----2-2--12_13-12~\---2---5--7--5--8-|
 |-0-0--------------0---3--5-----------0-0----h------sl--0---3--5-----6-|
 | . .     . .                                                          |
 |----------------------------------------------------------------------|
 |----------------------------------------------------------------------|
 |----------------------------------------------------------------------|
 |------------------------------------------11/12------------------7----|
 |-2-2--12_13-12~\--2---5--7--5-7-7~---2-2--12/13-12~\---2---5--7--5--8-|
 |-0-0----h------sl-0---3--5-----------0-0---sl------sl--0---3--5-----6-|
   . .     . . 
 
 |---------------------------------------------||
 |---------------------------------------------||
 |--------------------------------------------:||
 |-----------------------------------7--------:||
 |-7--5---2-2--12/13-12~\--2---5--7--5--7-7~\--||
 |-5--3---0-0---sl------sl-0---3--5---------sl-||
 |        . .                                  ||
 |---------------------------------------------||
 |---------------------------------------------||
 |--------------------------------------------:||
 |------------------------------------7--9-9--:||
 |-7--5---2-2---12/13-12~\--2---5--7--5--7-7---||
 |-5--3---0-0----sl------sl-0---3--5-----------||
          . .


 |Riff F|
||------------------------------------------------------------------------|
||------------------------------------------------------------------------|
||:-----------------------------------------------------------------------|
||:-----------------------------------------------------------------------|
||--3---------------3--5--3--2---------------2----/7----------------------|
||-----------------------------------------------sl-----------------------|
||                                                                        |
||------------------------------------------------------------------------|
||------------------------------------------------------------------------|
||:-----------------------------------------------------------------------|
||:----------------------------------------------2------------------------|
||--3---------------3--5--3--2----------------2---------------------------|
||------------------------------------------------------------------------|


 |Keyboard arranged for Guitar|
 |-------------12-----------------------12-----------------------15-------|
 |-13----13-------13----13--12----12-------12----12--17----17-------17----|
 |----12----12-------12--------11----11-------11--------16----16-------16-|
 |------------------------------------------------------------------------|
 |------------------------------------------------------------------------|
 |------------------------------------------------------------------------|
 |                                                                        |
 |------------------------------------------------------------------------|
 |------------------------------------------------------------------------|
 |------------------------------------------------------------------------|
 |-2---5--4-------------5--4--2------------------------------------2------|
 |---------------------------------------------5--------------------------|
 |------------------------------------------------------------------------|
 |                                                                        |
 |------------------------------------------------------------------------|
 |------------------------------------------------------------------------|
 |------------------------------------------------------------------------|
 |-2---5------------------------------------------------------------------|
 |--------5-------------------3----------------5--3--2--------------------|
 |-----------------------------------------------------------------3------|
 |                                                                        |
 |----------------14-----------------------12-----------------------12----|
 |-15-15----15-------15----15--13----13-------13----13--12----12-------12-|
 |-------14----14-------14--------12----12-------12--------11----11-------|
 |------------------------------------------------------------------------|
 |------------------------------------------------------------------------|
 |------------------------------------------------------------------------|


 |------------------------------------------------------------------------||
 |------------------------------------------------------------------------||
 |-----------------------------------------------------------------------:||
 |/4_5--2~---------------------------------------------(2)---------------:||
 |slh---------------------------------------------------------------------||
 |------------------------------------------------------------------------||
 |                                                                        ||
 |------------------------------------------------------------------------||
 |------------------------------------------------------------------------||
 |-----------------------------------------------------------------------:||
 |-----------------------------------------------------------------------:||
 |------2----------------------------------------------(2)----------------||
 |------0----------------------------------------------(0)----------------||
 |                                                                        ||
 |-------------------15-----------------------15--------------------------||
 |---12--17----17-------17----17--17----17-------17----17-----------------||
 |11--------16----16-------16--------16----16-------16-------------------:||
 |-----------------------------------------------------------------------:||
 |------------------------------------------------------------------------||
 |------------------------------------------------------------------------||
comments
We did not receive enough feedback on this tab! Please rate:
print report bad tab
1 2 3 4 5
I want to post or [tab]
guest
You may want to rate the tab now too:
select rating
Please do not post tabs as comments. Select "correction" instead!