Oops, an error
Loading. Please wait.

Nemesis Tab

ver1
ver1

Solo

Whole song

Video

More versions @911Tabs.com
147,854 views 340 this week
44 commentsread comments
1 2 3 4 5
excellent!
x 37
Autoscroll
+/-
esc
set tempo
stop
Contributor
WARNING: You are trying to view
                                    content from Ultimate-Guitar.com
                                    in an unauthorized application,
                                    which is prohibited.

                                    Please use an official Ultimate
                                    Guitar Tabs application for iPhone,
                                    iPad or Android to access legitimate
                                    chords, guitar, bass, and drum tabs
                                    from Ultimate-Guitar.com database.

                                    Type "ultimate guitar tabs" in Apple
                                    App Store's or Android Market's
                                    search to find the application.
                                     NEMESIS
                            As recorded by Arch Enemy
                     (From the 2005 Album DOOMSDAY MACHINE)

Words by Angela Gossow 
Music by Christopher & Micheal Amott and Daniel Erlandsson
Transcribed by Ethereal Sin

Gtr I (C F Bb Eb G C) - 'Rhythm'
Gtr II (C F Bb Eb G C) - 'Lead'
Gtr III (C F Bb Eb G C) - 'Solos'
Gtr IV (C F Bb Eb G C) - 'Lead 2'
Gtr V (C F Bb Eb G C) - 'Clean'

 Intro
  Q=205
  D5      N.C.
 4/4
  Gtr I
  S S S S  S  S S S  S S S S S S  S S   S S  S S S S S S S  S  E S S  E
|-------------------------------------|----------------------------------|
|-------------------------------------|----------------------------------|
|-------------------------------------|----------------------------------|
|-0-0-0-0-12--0-0-0-13-0-0-0-0-0-15-0-|-0-0-13-0-0-0-0-0-0h10h12-0h8h10--|
|-------------------------------------|----------------------------------|
|-------------------------------------|----------------------------------|
|
| Gtr II
| q        H.                           W
|-------------------------------------|----------------------------------|
|-------------------------------------|----------------------------------|
|-7-----------------------------------|----------------------------------|
|-7-----------------------------------|----------------------------------|
|-5-----------------------------------|----------------------------------|
|-------------------------------------|----------------------------------|


  Gtr I
  S S S S  S S S S  S S S S S S  S S   S S  S S S S S S S  S  E S S  E
|------------------------------------|---------------------------------|
|------------------------------------|---------------------------------|
|------------------------------------|---------------------------------|
|-0-0-0-0-12-0-0-0-13-0-0-0-0-0-15-0-|-0-0-13-0-0-0-0-0-0h10h12-0h8h10-|
|------------------------------------|---------------------------------|
|------------------------------------|---------------------------------|


          D5       Eb5          F5         Eb5
  Gtr I
  S S S S  S S S S  S S S S S S  S S   S S  S S S  S S S S  S  E S S  E
|------------------------------------|----------------------------------|
|------------------------------------|----------------------------------|
|------------------------------------|----------------------------------|
|-0-0-0-0-12-0-0-0-13-0-0-0-0-0-15-0-|-0-0-13-0-0--0-0-0-0h10h12-0h8h10-|
|------------------------------------|----------------------------------|
|------------------------------------|----------------------------------|
|
| Gtr II
| Q        q        q       E    E     E    E   H.
|------------------------------------|----------------------------------|
|------------------------------------|----------------------------------|
|----------7--------8-----------10---|------8---------------------------|
|----------7--------8-----------10---|------8---------------------------|
|----------5--------6------------8---|------6---------------------------|
|------------------------------------|----------------------------------|


          D5       Eb5          F5         Eb5                  N.C.
  S S S S  S S S S  S S S S S S  S S   S S  S S S S S S S  S  E  S  S  E
|------------------------------------|-----------------------------------|
|------------------------------------|-----------------------------------|
|------------------------------------|-----------------------------------|
|-0-0-0-0-12-0-0-0-13-0-0-0-0-0-15-0-|-0-0-13-0-0-0-0-0-0h10h12--0h=8h10-|
|------------------------------------|-----------------------------------|
|------------------------------------|-----------------------------------|
|
| Q        q        q       E    E     E    E   H                Q
|------------------------------------|-----------------------------------|
|------------------------------------|-----------------------------------|
|----------7--------8-----------10---|------8----------------------------|
|----------7--------8-----------10---|------8----------------------------|
|----------5--------6------------8---|------6-------------------12\------|
|------------------------------------|-----------------------------------|


  N.C.
  Gtrs I, II
  S S S S  S S S S  S S S S S S  S S   S S  S S S S S S S  S  E S S  E
|------------------------------------|---------------------------------|
|------------------------------------|---------------------------------|
|------------------------------------|---------------------------------|
|-0-0-0-0-12-0-0-0-13-0-0-0-0-0-15-0-|-0-0-13-0-0-0-0-0-0h10h12-0h8h10-|
|------------------------------------|---------------------------------|
|------------------------------------|---------------------------------|


  N.C.(D/A)
  Gtr III
   <
   W                                     +W
|-22----------------------------------|-(22)-------------------------------|
|-22----------------------------------|-(22)-------------------------------|
|-------------------------------------|------------------------------------|
|-------------------------------------|------------------------------------|
|-------------------------------------|------------------------------------|
|-------------------------------------|------------------------------------|
|
| Gtrs I, II
|  S S S S  S S S S  S S S S S S  S S     S  S  S S S S S S S  S  E S S  E
|-------------------------------------|------------------------------------|
|-------------------------------------|------------------------------------|
|-------------------------------------|------------------------------------|
|--0-0-0-0-12-0-0-0-13-0-0-0-0-0-15-0-|---0--0-13-0-0-0-0-0-0h10h12-0h8h10-|
|-------------------------------------|------------------------------------|
|-------------------------------------|------------------------------------|


   +W                                      +W
|-(22)----------------------------------|-(22)-------------------------------|
|-(22)----------------------------------|-(22)-------------------------------|
|---------------------------------------|------------------------------------|
|---------------------------------------|------------------------------------|
|---------------------------------------|------------------------------------|
|---------------------------------------|------------------------------------|
|
|   S  S S S  S S S S  S S S S S S  S S     S  S  S S S S S S S  S  E S S  E
|---------------------------------------|------------------------------------|
|---------------------------------------|------------------------------------|
|---------------------------------------|------------------------------------|
|---0--0-0-0-12-0-0-0-13-0-0-0-0-0-15-0-|---0--0-13-0-0-0-0-0-0h10h12-0h8h10-|
|---------------------------------------|------------------------------------|
|---------------------------------------|------------------------------------|


   +W                                      +W
|-(22)----------------------------------|-(22)-------------------------------|
|-(22)----------------------------------|-(22)-------------------------------|
|---------------------------------------|------------------------------------|
|---------------------------------------|------------------------------------|
|---------------------------------------|------------------------------------|
|---------------------------------------|------------------------------------|
|
|   S  S S S  S S S S  S S S S S S  S S     S  S  S S S S S S S  S  E S S  E
|---------------------------------------|------------------------------------|
|---------------------------------------|------------------------------------|
|---------------------------------------|------------------------------------|
|---0--0-0-0-12-0-0-0-13-0-0-0-0-0-15-0-|---0--0-13-0-0-0-0-0-0h10h12-0h8h10-|
|---------------------------------------|------------------------------------|
|---------------------------------------|------------------------------------|


   Verse
        F5/CE5/B  F5/C   E5/B  D5/A  E5/B    F5/CE5/B      F5 Bb5C5 C#5
    Gtrs I, II
    PM|   PM  PM|      PM  PM|   PM      PM|   PM  PM--|
    E E E E E E E E    E E E E E E E E   E E E E E E E E   Q  Q  Q  Q
||------------------||-----------------|-----------------|--------------|
||o-----------------||-----------------|-----------------|--------------|
||------------------||-----------------|-----------------|--------------|
||------3---2-----3-||---2-----0---0h2-|-----3---2-------|----3--5--6---|
||o-----3---2-----3-||---2-----0---0h2-|-----3---2-------|-3--1--3--4---|
||--0-0---0---0-0---||-0---0-0---0-----|-0-0---0---0-0-0-|-1------------|


      F5/CE5/B  F5/C  E5/B  D5/A  E5/B
  PM|   PM  PM|     PM  PM|   PM
  E E E E E E E E   E E E E E E E E
|-----------------|-----------------|
|-----------------|-----------------|
|-----------------|-----------------|
|-----3---2-----3-|---2-----0---0h2-|
|-----3---2-----3-|---2-----0---0h2-|
|-0-0---0---0-0---|-0---0-0---0-----|


      F5/CE5/B      F5 Bb5C5 C#5  G#5C#5D#5E5
  PM|   PM  PM--|
  E E E E E E E E   Q  Q  Q  Q    Q  Q  Q  Q
|-----------------|-------------|--------------||
|-----------------|-------------|-------------o||
|-----------------|-------------|--------------||
|-----3---2-------|----3--5--6--|----6--8--9---||
|-----3---2-------|-3--1--3--4--|-6--4--6--7--o||
|-0-0---0---0-0-0-|-1-----------|-4------------||


 Lead - C. Amott
  N.C.
  Gtr III
   W
|-16b19----------------------------------|
|----------------------------------------|
|----------------------------------------|
|----------------------------------------|
|----------------------------------------|
|----------------------------------------|
|
| Gtrs I, II
|  S    S S S  S S S S  S S S S S S  S S
|----------------------------------------|
|----------------------------------------|
|----------------------------------------|
|--0----0-0-0-12-0-0-0-13-0-0-0-0-0-15-0-|
|----------------------------------------|
|----------------------------------------|


   +H                      H
|-(16)pb19--------------------------------|
|-------------------------<2>-------------|
|-----------------------------------------|
|-----------------------------------------|
|-----------------------------------------|
|-----------------------------------------|
|
|   S      S  S S S S S S  S  S  E S S  E
|-----------------------------------------|
|-----------------------------------------|
|-----------------------------------------|
|---0------0-13-0-0-0-0-0--0h10h12-0h8h10-|
|-----------------------------------------|
|-----------------------------------------|


    ~~~~~
   +W
|----------------------------------------|
|-(<2>)----------------------------------|
|----------------------------------------|
|----------------------------------------|
|----------------------------------------|
|----------------------------------------|
|
|   S   S S S  S S S S  S S S S S S  S S
|----------------------------------------|
|----------------------------------------|
|----------------------------------------|
|---0---0-0-0-12-0-0-0-13-0-0-0-0-0-15-0-|
|----------------------------------------|
|----------------------------------------|


    \1/          \7
   +Q           +H.
|-----------------------------------------|
|-(<2>)--------(<2>)----------------------|
|-----------------------------------------|
|-----------------------------------------|
|-----------------------------------------|
|-----------------------------------------|
|
|   S   S  S S   S   S S S S  S  E S S  E
|-----------------------------------------|
|-----------------------------------------|
|-----------------------------------------|
|---0---0-13-0---0---0-0-0-0h10h12-0h8h10-|
|-----------------------------------------|
|-----------------------------------------|


   |-----------------9:8------------------|  |-----------------9:8------------------|
   S  S    S    S    S     S    S    S    S  S  S    S    S    S    S    S     S    S
|-23-20---22---23---22----20---23---20---22-23-22---20---23---20---22---23----22---20-|
|-------------------------------------------------------------------------------------|
|-------------------------------------------------------------------------------------|
|-------------------------------------------------------------------------------------|
|-------------------------------------------------------------------------------------|
|-------------------------------------------------------------------------------------|
|
|  S    S    S    S     S    S    S    S     S    S    S    S    S    S     S    S
|-------------------------------------------------------------------------------------|
|-------------------------------------------------------------------------------------|
|-------------------------------------------------------------------------------------|
|--0----0----0----0----12----0----0----0----13----0----0----0----0----0----15----0----|
|-------------------------------------------------------------------------------------|
|-------------------------------------------------------------------------------------|


   |-----------------9:8------------------|  |----------------9:8-----------------|
   S  S    S     S    S    S    S    S    S  S  S     S     S  S    S    S     S  S
|-23-22---20----23---20---22---23---22---20----------------23-22---20----------------|
|-------------------------------------------23-22----20-----------------23----22-20--|
|------------------------------------------------------------------------------------|
|------------------------------------------------------------------------------------|
|------------------------------------------------------------------------------------|
|------------------------------------------------------------------------------------|
|
|  S    S     S    S    S    S    S    S     S     S     E       S    S     E
|------------------------------------------------------------------------------------|
|------------------------------------------------------------------------------------|
|------------------------------------------------------------------------------------|
|--0----0----13----0----0----0----0----0-----0h===10h===12-------0h===8h===10--------|
|------------------------------------------------------------------------------------|
|------------------------------------------------------------------------------------|


   |-----------------9:8------------------|  |-----------------9:8------------------|
   S  S    S    S    S     S    S    S    S  S  S    S    S    S    S    S     S    S
|-------------------------------------------------------------------------------------|
|-------------------------------------------------------------------------------------|
|-20-19---17-------------------20---19---17-------------------------------------------|
|--------------20---19----17----------------20-19---17--------------------------------|
|--------------------------------------------------------18---17---15-----------------|
|-----------------------------------------------------------------------18----17---15-|
|
|  S    S    S    S     S    S    S    S     S    S    S    S    S    S     S    S
|-------------------------------------------------------------------------------------|
|-------------------------------------------------------------------------------------|
|-------------------------------------------------------------------------------------|
|--0----0----0----0----12----0----0----0----13----0----0----0----0----0----15----0----|
|-------------------------------------------------------------------------------------|
|-------------------------------------------------------------------------------------|


               ~~~
   S  S  S  S  H.
|--------------------------------------|
|--------------------------------------|
|--------------------------------------|
|--------------------------------------|
|-15-----------------------------------|
|----18-17-15-14-----------------------|
|
|  S  S  S  S  S  S S S S  S  E S S  E
|--------------------------------------|
|--------------------------------------|
|--------------------------------------|
|--0--0-13--0--0--0-0-0-0h10h12-0h8h10-|
|--------------------------------------|
|--------------------------------------|


 Verse
      F5/CE5/B  F5/C   E5/B  D5/A  E5/B    F5/CE5/B      F5 Bb5C5 C#5
  Gtrs I, II
  PM|   PM  PM|      PM  PM|   PM      PM|   PM  PM--|
  E E E E E E E E    E E E E E E E E   E E E E E E E E   Q  Q  Q  Q
|-----------------||-----------------|-----------------|-------------|
|-----------------||-----------------|-----------------|-------------|
|-----------------||-----------------|-----------------|-------------|
|-----3---2-----3-||---2-----0---0h2-|-----3---2-------|----3--5--6--|
|-----3---2-----3-||---2-----0---0h2-|-----3---2-------|-3--1--3--4--|
|-0-0---0---0-0---||-0---0-0---0-----|-0-0---0---0-0-0-|-1-----------|


      F5/CE5/B  F5/C  E5/B  D5/A  E5/B
  PM|   PM  PM|     PM  PM|   PM
  E E E E E E E E   E E E E E E E E
|-----------------|-----------------|
|-----------------|-----------------|
|-----------------|-----------------|
|-----3---2-----3-|---2-----0---0h2-|
|-----3---2-----3-|---2-----0---0h2-|
|-0-0---0---0-0---|-0---0-0---0-----|


      F5/CE5/B      F5 Bb5C5 C#5  G#5C#5D#5E5
  PM|   PM  PM--|
  E E E E E E E E   Q  Q  Q  Q    Q  Q  Q  Q
|-----------------|-------------|-------------|
|-----------------|-------------|-------------|
|-----------------|-------------|-------------|
|-----3---2-------|----3--5--6--|----6--8--9--|
|-----3---2-------|-3--1--3--4--|-6--4--6--7--|
|-0-0---0---0-0-0-|-1-----------|-4-----------|


  $
      F5/CE5/B  F5/C  E5/B  D5/A  E5/B    F5/CE5/B      F5 Bb5C5 C#5
  PM|   PM  PM|     PM  PM|   PM      PM|   PM  PM--|
  E E E E E E E E   E E E E E E E E   E E E E E E E E   Q  Q  Q  Q
|-----------------|-----------------|-----------------|-------------|
|-----------------|-----------------|-----------------|-------------|
|-----------------|-----------------|-----------------|-------------|
|-----3---2-----3-|---2-----0---0h2-|-----3---2-------|----3--5--6--|
|-----3---2-----3-|---2-----0---0h2-|-----3---2-------|-3--1--3--4--|
|-0-0---0---0-0---|-0---0-0---0-----|-0-0---0---0-0-0-|-1-----------|


      F/C E/B   F/C   E/B   D/A   E/B
  PM|   PM  PM|     PM  PM|   PM
  E E E E E E E E   E E E E E E E E
|-----------------|-----------------|
|-----------------|-----------------|
|-----------------|-----------------|
|-----3---2-----3-|---2-----0---0h2-|
|-----3---2-----3-|---2-----0---0h2-|
|-0-0---0---0-0---|-0---0-0---0-----|


      F/C E/B       F5 Bb5C5 C#5  G#5C#5D#5E5
  PM|   PM  PM--|                 PM
  E E E E E E E E   Q  Q  Q  Q    Q  Q  Q  Q
|-----------------|-------------|-------------|
|-----------------|-------------|-------------|
|-----------------|-------------|-------------|
|-----3---2-------|----3--5--6--|----6--8--9--|
|-----3---2-------|-3--1--3--4--|-6--4--6--7--|
|-0-0---0---0-0-0-|-1-----------|-4-----------|


 Chorus
  Q=103
  N.C.(C)                            N.C.(D)
  Gtr III
   H               E   E   E   E     +E    E   H.
|------------------------------7---|-(7)---8---5------------------------|
|-/5---------------5---7---8-------|------------------------------------|
|----------------------------------|------------------------------------|
|----------------------------------|------------------------------------|
|----------------------------------|------------------------------------|
|----------------------------------|------------------------------------|
|
| Gtrs I, II
|  S S S S S S S S S S S S S S S S    S  S S S S  S S S S S S S S S S S
|----------------------------------|------------------------------------|
|----------------------------------|------------------------------------|
|--5-5-5-5-5-5-5-5-5-5-5-5-5-5-5-5-|--7--7-7-7-7--7-7-7-7-7-7-7-7-7-7-7-|
|----------------------------------|------------------------------------|
|--3-3-3-3-3-3-3-3-3-3-3-3-3-3-3-3-|--5--5-5-5-5--5-5-5-5-5-5-5-5-5-5-5-|
|----------------------------------|------------------------------------|


  N.C.(Bm)                          N.C.(C)
  H               E   E   E   E     +E    E   H               Q
|-----------------------------5---|-(5)---7---3-----------------------|
|-3---------------3---5---7-------|---------------------------7-------|
|---------------------------------|-----------------------------------|
|---------------------------------|-----------------------------------|
|---------------------------------|-----------------------------------|
|---------------------------------|-----------------------------------|
|
| S S S S S S S S S S S S S S S S    S  S S S S S S S S S S S S S S S
|---------------------------------|-----------------------------------|
|---------------------------------|-----------------------------------|
|-4-4-4-4-4-4-4-4-4-4-4-4-4-4-4-4-|--5--5-5-5-5-5-5-5-5-5-5-5-5-5-5-5-|
|---------------------------------|-----------------------------------|
|-2-2-2-2-2-2-2-2-2-2-2-2-2-2-2-2-|--3--3-3-3-3-3-3-3-3-3-3-3-3-3-3-3-|
|---------------------------------|-----------------------------------|


  C
   H               E   E   E   E
|------------------------------7---|
|-/5---------------5---7---8-------|
|----------------------------------|
|----------------------------------|
|----------------------------------|
|----------------------------------|
|
| Gtr I
|  S S S S S S S S S S S S S S S S
|----------------------------------|
|----------------------------------|
|--9-9-9-9-9-9-9-9-9-9-9-9-9-9-9-9-|
|----------------------------------|
|--7-7-7-7-7-7-7-7-7-7-7-7-7-7-7-7-|
|----------------------------------|
|
| Gtr II
|  S S S S S S S S S S S S S S S S
|----------------------------------|
|----------------------------------|
|--5-5-5-5-5-5-5-5-5-5-5-5-5-5-5-5-|
|----------------------------------|
|--3-3-3-3-3-3-3-3-3-3-3-3-3-3-3-3-|
|----------------------------------|


                                          To Coda
  D
  +E      E     H                      +E      S  S
|-(7)-----8-----5----------------------(5)----10p=8h=|
|----------------------------------------------------|
|----------------------------------------------------|
|----------------------------------------------------|
|----------------------------------------------------|
|----------------------------------------------------|
|
|  S   S  S  S  S  S  S  S  S  S  S  S  S   S  S  S
|----------------------------------------------------|
|----------------------------------------------------|
|-11--11-11-11-11-11-11-11-11-11-11-11-11--11-11-11--|
|----------------------------------------------------|
|--9---9--9--9--9--9--9--9--9--9--9--9--9---9--9--9--|
|----------------------------------------------------|
|
|  S   S  S  S  S  S  S  S  S  S  S  S  S   S  S  S
|----------------------------------------------------|
|----------------------------------------------------|
|--7---7--7--7--7--7--7--7--7--7--7--7--7---7--7--7--|
|----------------------------------------------------|
|--5---5--5--5--5--5--5--5--5--5--5--5--5---5--5--5--|
|----------------------------------------------------|


  Bm
   Q.           E   +Q         Q
|-10--------------------------10-------|
|---------------8---(8)----------------|
|--------------------------------------|
|--------------------------------------|
|--------------------------------------|
|--------------------------------------|
|
|  S  S S S S S S S  S  S S S  S S S S
|--------------------------------------|
|--------------------------------------|
|--7--7-7-7-7-7-7-7--7--7-7-7--7-7-7-7-|
|--------------------------------------|
|--5--5-5-5-5-5-5-5--5--5-5-5--5-5-5-5-|
|--------------------------------------|
|
|  S  S S S S S S S  S  S S S  S S S S
|--------------------------------------|
|--------------------------------------|
|--4--4-4-4-4-4-4-4--4--4-4-4--4-4-4-4-|
|--------------------------------------|
|--2--2-2-2-2-2-2-2--2--2-2-2--2-2-2-2-|
|--------------------------------------|


  C                 D
    W
|-/12---------------------------------------|
|-------------------------------------------|
|-------------------------------------------|
|-------------------------------------------|
|-------------------------------------------|
|-------------------------------------------|
|
|   S S S S S S S S  S  S  S  S  S  S  S  S
|-------------------------------------------|
|-------------------------------------------|
|---9-9-9-9-9-9-9-9-11-11-11-11-11-11-11-11-|
|-------------------------------------------|
|---7-7-7-7-7-7-7-7--9--9--9--9--9--9--9--9-|
|-------------------------------------------|
|
|   S S S S S S S S  S  S  S  S  S  S  S  S
|-------------------------------------------|
|-------------------------------------------|
|---5-5-5-5-5-5-5-5--7--7--7--7--7--7--7--7-|
|-------------------------------------------|
|---3-3-3-3-3-3-3-3--5--5--5--5--5--5--5--5-|
|-------------------------------------------|


  Q=205
  N.C.    D5       Eb5          F5         Eb5
  S S S S  S S S S  S S S S S S  S S   S S  S S S  S S S S  S  E S S  E
|------------------------------------|----------------------------------|
|------------------------------------|----------------------------------|
|------------------------------------|----------------------------------|
|-0-0-0-0-12-0-0-0-13-0-0-0-0-0-15-0-|-0-0-13-0-0--0-0-0-0-10-12-0-8-10-|
|------------------------------------|----------------------------------|
|------------------------------------|----------------------------------|
|
| Q        q        q       E    E     E    E   H.
|------------------------------------|----------------------------------|
|------------------------------------|----------------------------------|
|------------------------------------|----------------------------------|
|----------7--------8-----------10---|------8---------------------------|
|----------5--------6------------8---|------6---------------------------|
|------------------------------------|----------------------------------|


 2nd Lead - C. Amott
  N.C.
   W
|----------------------------------------|
|-13b15----------------------------------|
|----------------------------------------|
|----------------------------------------|
|----------------------------------------|
|----------------------------------------|
|
| Gtrs I, II
|  S    S S S  S S S S  S S S S S S  S S
|----------------------------------------|
|----------------------------------------|
|----------------------------------------|
|--0----0-0-0-12-0-0-0-13-0-0-0-0-0-15-0-|
|----------------------------------------|
|----------------------------------------|


                           |-------3-------|
   +H                      Q        Q      Q
|-----------------------------------------------|
|-(13)pb15----------------13-------11-----10----|
|-----------------------------------------------|
|-----------------------------------------------|
|-----------------------------------------------|
|-----------------------------------------------|
|
|   S      S  S S S S S S  S  S  E    S S     E
|-----------------------------------------------|
|-----------------------------------------------|
|-----------------------------------------------|
|---0------0-13-0-0-0-0-0--0h10h12----0h8h===10-|
|-----------------------------------------------|
|-----------------------------------------------|


   E       +E         +Q.                 E    E    E
|-------------------------------------------------------|
|-11b13---(11)pb13---(11)pb13------------11---10--------|
|--------------------------------------------------12---|
|-------------------------------------------------------|
|-------------------------------------------------------|
|-------------------------------------------------------|
|
|  S    S   S      S   S      S S S  S S  S S  S S  S S
|-------------------------------------------------------|
|-------------------------------------------------------|
|-------------------------------------------------------|
|--0----0---0------0--12------0-0-0-13-0--0-0--0-0-15-0-|
|-------------------------------------------------------|
|-------------------------------------------------------|


   H                    +q            Q
|-11b13----------------(11)pb13--------------|
|--------------------------------------------|
|--------------------------------------------|
|--------------------------------------------|
|--------------------------------------------|
|--------------------------------------------|
|
|  S    S  S S S S S S   S       S  E S S  E
|--------------------------------------------|
|--------------------------------------------|
|--------------------------------------------|
|--0----0-13-0-0-0-0-0---0h=====10h12-0h8h10-|
|--------------------------------------------|
|--------------------------------------------|


   S  S  S  S  S  S  S  S  S  S  S  S  S  S  S  S
|-------------------------------------------------|
|-20-19-------20-19-------20-19-------20-19-------|
|-------20-19-------20-19-------20-19-------20-19-|
|-------------------------------------------------|
|-------------------------------------------------|
|-------------------------------------------------|
|
|  S  S  S  S  S  S  S  S  S  S  S  S  S  S  S  S
|-------------------------------------------------|
|-------------------------------------------------|
|-------------------------------------------------|
|--0--0--0--0-12--0--0--0-13--0--0--0--0--0-15--0-|
|-------------------------------------------------|
|-------------------------------------------------|


   S  S  S  S  S  S  S  S  S  S  S  S  S  S  S  S
|-------------------------------------------------|
|-22-19-------22-19-------22-19-------22-19-------|
|-------20-19-------20-19-------20-19-------20-19-|
|-------------------------------------------------|
|-------------------------------------------------|
|-------------------------------------------------|
|
|  S  S  S  S  S  S  S  S  S  S  E     S  S  E
|-------------------------------------------------|
|-------------------------------------------------|
|-------------------------------------------------|
|--0--0-13--0--0--0--0--0--0h10h12-----0h=8h10----|
|-------------------------------------------------|
|-------------------------------------------------|


   S  S  S  S  S  S  S  S  S  S  S  S  S  S  S  S
|-22-18-------------22-18-------------22-18-------|
|-------22-19-------------22-19-------------22-19-|
|-------------20-19-------------20-19-------------|
|-------------------------------------------------|
|-------------------------------------------------|
|-------------------------------------------------|
|
|  S  S  S  S  S  S  S  S  S  S  S  S  S  S  S  S
|-------------------------------------------------|
|-------------------------------------------------|
|-------------------------------------------------|
|--0--0--0--0-12--0--0--0-13--0--0--0--0--0-15--0-|
|-------------------------------------------------|
|-------------------------------------------------|


   E    E    +H.
|------22---(22)b23----------------------|
|----------------------------------------|
|-20-------------------------------------|
|----------------------------------------|
|----------------------------------------|
|----------------------------------------|
|
|  S S  S S   S     S S S S  S  E S S  E
|----------------------------------------|
|----------------------------------------|
|----------------------------------------|
|--0-0-13-0---0-----0-0-0-0h10h12-0h8h10-|
|----------------------------------------|
|----------------------------------------|


 Hey!
          F5/CE5/B  F5/C          E5/B  D5/A  E5/B
   W                      +H            H
|-22b24---------------||-(22)pb24---------------|
|---------------------||------------------------|
|---------------------||------------------------|
|---------------------||------------------------|
|---------------------||------------------------|
|---------------------||------------------------|
|
| Gtrs I, II
|  PM---|   PM  PM|        PM       PM|   PM
|  E    E E E E E E E      E      E E E E E E E
|---------------------||------------------------|
|---------------------||------------------------|
|---------------------||------------------------|
|---------3---2-----3-||----------2-----0---0h2-|
|---------3---2-----3-||----------2-----0---0h2-|
|--0----0---0---0-0---||---0--------0-0---0-----|


      F5/CE5/B      F5 Bb5C5 C#5
  W                 W
|-----------------|-------------|
|-----------------|-------------|
|-----------------|-------------|
|-----------------|-------------|
|-----------------|-------------|
|-----------------|-------------|
|
| PM|   PM  PM--|
| E E E E E E E E   Q  Q  Q  Q
|-----------------|-------------|
|-----------------|-------------|
|-----------------|-------------|
|-----3---2-------|----3--5--6--|
|-----3---2-------|-3--1--3--4--|
|-0-0---0---0-0-0-|-1-----------|


      F5/CE5/B  F5/C  E5/B  D5/A  E5/B
  PM|   PM  PM|     PM  PM|   PM
  E E E E E E E E   E E E E E E E E
|-----------------|-----------------|
|-----------------|-----------------|
|-----------------|-----------------|
|-----3---2-----3-|---2-----0---0h2-|
|-----3---2-----3-|---2-----0---0h2-|
|-0-0---0---0-0---|-0---0-0---0-----|


                               D.S. al Coda
      F5/CE5/B      F5 Bb5C5 C#5  G#5C#5D#5E5
  PM|   PM  PM--|
  E E E E E E E E   Q  Q  Q  Q    Q  Q  Q  Q
|-----------------|-------------|-------------|
|-----------------|-------------|-------------|
|-----------------|-------------|-------------|
|-----3---2-------|----3--5--6--|----6--8--9--|
|-----3---2-------|-3--1--3--4--|-6--4--6--7--|
|-0-0---0---0-0-0-|-1-----------|-4-----------|


  Q=103
  &
  Bm                                     C         D
  Gtr III
   Q.           E   +Q         Q           H.           +Q
|-10--------------------------10-------|-/12b14--------(12)--|
|---------------8---(8)----------------|---------------------|
|--------------------------------------|---------------------|
|--------------------------------------|---------------------|
|--------------------------------------|---------------------|
|--------------------------------------|---------------------|
|
| Gtr II
|  S  S S S S S S S  S  S S S  S S S S     H        H
|--------------------------------------|---------------------|
|--------------------------------------|---------------------|
|--7--7-7-7-7-7-7-7--7--7-7-7--7-7-7-7-|---9-------11--------|
|--------------------------------------|---------------------|
|--5--5-5-5-5-5-5-5--5--5-5-5--5-5-5-5-|---7--------9--------|
|--------------------------------------|---------------------|
|
| Gtr I
|  S  S S S S S S S  S  S S S  S S S S     H        H
|--------------------------------------|---------------------|
|--------------------------------------|---------------------|
|--4--4-4-4-4-4-4-4--4--4-4-4--4-4-4-4-|---5--------7--------|
|--------------------------------------|---------------------|
|--2--2-2-2-2-2-2-2--2--2-2-2--2-2-2-2-|---3--------5--------|
|--------------------------------------|---------------------|


 Breakdown
  N.C.
  Gtrs I, II
  PM----------------------------------------------------------------------|
  T T S S S S S S S T T S S S S S S S   T T S S S S S S S T T S S S S S S S
|-------------------------------------|---------------------------------------|
|-------------------------------------|---------------------------------------|
|-------------------------------------|---------------------------------------|
|-------------------------------------|---------------------------------------|
|-------------------------------------|---------------------------------------|
|-0-0-0-0-0-0-0-0-0-0-0-0-0-0-0-0-0-0-|-0-0-0-0-0-0-0-0-0-0-0-0-0-0-0-0-0-0---|


  Gtr I
  PM-----------------------------------
  T T S S S S S S S T T S S S S S S S
|-------------------------------------|
|-------------------------------------|
|-------------------------------------|
|-------------------------------------|
|-------------------------------------|
|-0-0-0-0-0-0-0-0-0-0-0-0-0-0-0-0-0-0-|
|
| Gtr II
| PM-----------------------------------
| T T S S S S S S S T T S S S S S S S
|-------------------------------------|
|-------------------------------------|
|-------------------------------------|
|-------------------------------------|
|-------------------------------------|
|-0-0-0-0-0-0-0-0-0-0-0-0-0-0-0-0-0-0-|


 -------------------------------------------|
  T T S S T T S S T T S S T T S S T T S  S  S
|----------------------------------------------|
|----------------------------------------------|
|----------------------------------------------|
|----------------------------------------------|
|----------------------------------------------|
|-0-0-0---0-0-0---0-0-0---0-0-0---0-0-0--0--0--|
|
|-------------------------------------|
| T T S S T T S S T T S S T T S S T T S  E
|----------------------------------------------|
|----------------------------------------------|
|----------------------------------------------|
|----------------------------------------------|
|----------------------------------------------|
|-0-0-0---0-0-0---0-0-0---0-0-0---0-0-0-12\----|


    Gtrs I, II
    PM-----------------------------------
    T T S S S S S S S T T S S S S S S S
||--------------------------------------|
||o-------------------------------------|
||--------------------------------------|
||--------------------------------------|
||o-------------------------------------|
||--0-0-0-0-0-0-0-0-0-0-0-0-0-0-0-0-0-0-|


 -------|
  S S S S S S S S  S S S  S  S S  S S
|---------------------------------------||
|----------------------9-12-11-9-------o||
|-----------4---7-10-9-----------11-9---||
|---------6---8-------------------------||
|---5-8-7------------------------------o||
|-6-------------------------------------||


    Gtr I
    PM-----------------------------------
    T T S S S S S S S T T S S S S S S S
||--------------------------------------|
||o-------------------------------------|
||--------------------------------------|
||--------------------------------------|
||o-------------------------------------|
||--0-0-0-0-0-0-0-0-0-0-0-0-0-0-0-0-0-0-|
|
|   Gtr II
|   PM-----------------------------------
|   T T S S S S S S S T T S S S S S S S
||--------------------------------------|
||o-------------------------------------|
||--------------------------------------|
||--------------------------------------|
||o-------------------------------------|
||--0-0-0-0-0-0-0-0-0-0-0-0-0-0-0-0-0-0-|


 ----------|
   S  S  S  S  S  S  S  S  S  S  S  S  S  S  S  S
|---------------------------------------------------||
|--------------------------------9-12-11--9--------o||
|-----------------4-----7-10--9-------------11--9---||
|--------------6-----8------------------------------||
|-----5--8--7--------------------------------------o||
|--6------------------------------------------------||
|
|----------|
|  S  S  S  S  S  S  S  S  S  S  S  S  S  S  S  S
|-------------------------------16-19-18-16---------||
|-------------------------18-17-------------19-17--o||
|----------------16----19---------------------------||
|-------------18----20------------------------------||
|----17-20-19--------------------------------------o||
|-18------------------------------------------------||


  (Cadd2)            Dsus2
  Gtr IV
   H       E E E E   +E  E H.
|----------------7-|-(7)-8-5------------|
|-/5-------5-7-8---|--------------------|
|------------------|--------------------|
|------------------|--------------------|
|------------------|--------------------|
|------------------|--------------------|
|
| Gtr V
|  E E E E E E E E    E  E E  E E E E E
|----------------0-|------------0-----0-|
|----1-3-1---1-----|-------3------3-----|
|------------------|-----2----2-----2---|
|------------------|--0-----------------|
|--3-------3---3---|--------------------|
|------------------|--------------------|


  (Gmaj7/B)         (Cmaj11)
  H       E E E E   +E  E H       Q
|---------------5-|-(5)-7-3-----------|
|-3-------3-5-7---|---------------7---|
|-----------------|-------------------|
|-----------------|-------------------|
|-----------------|-------------------|
|-----------------|-------------------|
|
| E E E E E E E E    E  E E E E E E E
|---------2-----0-|-----------2-----0-|
|-----3-----3-----|-------3-----3-----|
|-------------4---|-----0---0-----0---|
|---5---5---------|-------------------|
|-2---------------|--3----------------|
|-----------------|-------------------|


  (Cadd2)            (Dadd2)
   H       E E E E   +E  E H       +E   S S
|----------------7-|-(7)-8-5-------(5)-10p8h=|
|-/5-------5-7-8---|-------------------------|
|------------------|-------------------------|
|------------------|-------------------------|
|------------------|-------------------------|
|------------------|-------------------------|
|
|  E E E E E E E E    E  E E E E E  E   E
|----------------0-|-----------0--------0----|
|----1-3-1---1-----|-------3-----3-----------|
|------------------|-----2---2------2--------|
|------------------|--0----------------------|
|--3-------3---3---|-------------------------|
|------------------|-------------------------|


  (Gmaj7/B)              (Cmaj11)
   Q.     E +Q     Q       H        H
|-10--------------10---|-/12-------14b15-------|
|---------8-(8)--------|-----------------------|
|----------------------|-----------------------|
|----------------------|-----------------------|
|----------------------|-----------------------|
|----------------------|-----------------------|
|
|  E  E E E  E  E  E E     E E E E  E    E E E
|------------2-------0-|------------2--------0-|
|-------3-------3------|-------3---------3-----|
|------------------4---|-----0---0---------0---|
|-----5---5------------|-----------------------|
|--2-------------------|---3-------------------|
|----------------------|-----------------------|


 Chorus
  N.C.(Eb)
  Gtr IV
   +W
|-(14)pb15-----------------------------------|
|--------------------------------------------|
|--------------------------------------------|
|--------------------------------------------|
|--------------------------------------------|
|--------------------------------------------|
|
| Gtr III
|   H                     E    E    E    E
|---------------------------------------10---|
|-----------------------------10---11--------|
|-/12--------------------12------------------|
|--------------------------------------------|
|--------------------------------------------|
|--------------------------------------------|
|
| Gtrs I, II
|   S      S S S S S S S  S S  S S  S S  S S
|--------------------------------------------|
|--------------------------------------------|
|---8------8-8-8-8-8-8-8--8-8--8-8--8-8--8-8-|
|--------------------------------------------|
|---6------6-6-6-6-6-6-6--6-6--6-6--6-6--6-6-|
|--------------------------------------------|


  N.C.(F)
    W
|----------------------------------------------------|
|----------------------------------------------------|
|----------------------------------------------------|
|----------------------------------------------------|
|----------------------------------------------------|
|----------------------------------------------------|
|
|  +E      E     H.
|-(10)----11-----------------------------------------|
|---------------13-----------------------------------|
|----------------------------------------------------|
|----------------------------------------------------|
|----------------------------------------------------|
|----------------------------------------------------|
|
|   S   S  S  S  S   S  S  S  S  S  S  S  S  S  S  S
|----------------------------------------------------|
|----------------------------------------------------|
|--10--10-10-10-10--10-10-10-10-10-10-10-10-10-10-10-|
|----------------------------------------------------|
|---8---8--8--8--8---8--8--8--8--8--8--8--8--8--8--8-|
|----------------------------------------------------|


  N.C.(Dm)
  Gtr III
    H                E    E    E    E
|---------------------------------------|
|-----------------------------10---13---|
|-/10---------------10---12-------------|
|---------------------------------------|
|---------------------------------------|
|---------------------------------------|
|
| Gtr I
|   S S S S S S S S  S S  S S  S S  S S
|---------------------------------------|
|---------------------------------------|
|---7-7-7-7-7-7-7-7--7-7--7-7--7-7--7-7-|
|---------------------------------------|
|---5-5-5-5-5-5-5-5--5-5--5-5--5-5--5-5-|
|---------------------------------------|
|
| Gtr II
|   S S S S S S S S  S S  S S  S S  S S
|---------------------------------------|
|---------------------------------------|
|---7-7-7-7-7-7-7-7--7-7--7-7--7-7--7-7-|
|---------------------------------------|
|---5-5-5-5-5-5-5-5--5-5--5-5--5-5--5-5-|
|---------------------------------------|


  N.C.(Gm)
   +E      E     H                       Q
|---------10----------------------------------------|
|-(13)----------11----------------------10----------|
|---------------------------------------------------|
|---------------------------------------------------|
|---------------------------------------------------|
|---------------------------------------------------|
|
|   S   S  S  S  S  S  S  S  S  S  S  S  S  S  S  S
|---------------------------------------------------|
|---------------------------------------------------|
|--12--12-12-12-12-12-12-12-12-12-12-12-12-12-12-12-|
|---------------------------------------------------|
|--10--10-10-10-10-10-10-10-10-10-10-10-10-10-10-10-|
|---------------------------------------------------|
|
|   S   S  S  S  S  S  S  S  S  S  S  S  S  S  S  S
|---------------------------------------------------|
|---------------------------------------------------|
|---------------------------------------------------|
|---5---5--5--5--5--5--5--5--5--5--5--5--5--5--5--5-|
|---------------------------------------------------|
|---3---3--3--3--3--3--3--3--3--3--3--3--3--3--3--3-|


  N.C.(Eb)
    H                E    E    E    E
|----------------------------------10---|
|------------------------10---11--------|
|-/12---------------12------------------|
|---------------------------------------|
|---------------------------------------|
|---------------------------------------|
|
| Gtrs I, II
|   S S S S S S S S  S S  S S  S S  S S
|---------------------------------------|
|---------------------------------------|
|---8-8-8-8-8-8-8-8--8-8--8-8--8-8--8-8-|
|---------------------------------------|
|---6-6-6-6-6-6-6-6--6-6--6-6--6-6--6-6-|
|---------------------------------------|


  N.C.(F)
   +E      E     H                       +E      S  S
|-(10)----11------------------------------------13p11-|
|---------------13----------------------(13)----------|
|-----------------------------------------------------|
|-----------------------------------------------------|
|-----------------------------------------------------|
|-----------------------------------------------------|
|
|   S   S  S  S  S  S  S  S  S  S  S  S   S   S  S  S
|-----------------------------------------------------|
|-----------------------------------------------------|
|--10--10-10-10-10-10-10-10-10-10-10-10--10--10-10-10-|
|-----------------------------------------------------|
|---8---8--8--8--8--8--8--8--8--8--8--8---8---8--8--8-|
|-----------------------------------------------------|


  N.C.(Dm)                                 G5     F/A
   Q.            E    +Q         Q           W
|-13----------------------------13-------|-/15---------|
|---------------11---(11)----------------|-------------|
|----------------------------------------|-------------|
|----------------------------------------|-------------|
|----------------------------------------|-------------|
|----------------------------------------|-------------|
|
|  S  S S S S S  S S   S  S S S  S S S S     H    H
|----------------------------------------|-------------|
|----------------------------------------|-------------|
|--7--7-7-7-7-7--7-7---7--7-7-7--7-7-7-7-|-------------|
|----------------------------------------|-------------|
|--5--5-5-5-5-5--5-5---5--5-5-5--5-5-5-5-|---5----8----|
|----------------------------------------|---3----5----|


 Outro Lead - M. Amott
  Eb
   H                          S  +S      +S   S  E     E
|-----------------------------------------------------------|
|-----------------------------------------------------------|
|-14b15----------------------14-(14)b15-(14)-14-14----15----|
|-----------------------------------------------------------|
|-----------------------------------------------------------|
|-----------------------------------------------------------|
|
| Gtr I
|  S     S  S  S  S  S  S  S  S   S       S   S  S  S  S  S
|-----------------------------------------------------------|
|-----------------------------------------------------------|
|-12----12-12-12-12-12-12-12-12--12------12--12-12-12-12-12-|
|-----------------------------------------------------------|
|-10----10-10-10-10-10-10-10-10--10------10--10-10-10-10-10-|
|-----------------------------------------------------------|
|
| Gtr II
|  S     S  S  S  S  S  S  S  S   S       S   S  S  S  S  S
|-----------------------------------------------------------|
|-----------------------------------------------------------|
|--8-----8--8--8--8--8--8--8--8---8-------8---8--8--8--8--8-|
|-----------------------------------------------------------|
|--6-----6--6--6--6--6--6--6--6---6-------6---6--6--6--6--6-|
|-----------------------------------------------------------|


  F
                                       |---3----|
   E     E     Q           E     E     S  S     S  E
|--------------------------------------------------------|
|-15-----------------------------------------------------|
|-------15----14----------14----15----14-15----14--------|
|-------------------------------------------------17-----|
|--------------------------------------------------------|
|--------------------------------------------------------|
|
|  S  S  S  S  S  S  S  S  S  S  S  S  S     S     S  S
|--------------------------------------------------------|
|--------------------------------------------------------|
|-14-14-14-14-14-14-14-14-14-14-14-14-14----14----14-14--|
|--------------------------------------------------------|
|-12-12-12-12-12-12-12-12-12-12-12-12-12----12----12-12--|
|--------------------------------------------------------|
|
|  S  S  S  S  S  S  S  S  S  S  S  S  S     S     S  S
|--------------------------------------------------------|
|--------------------------------------------------------|
|-10-10-10-10-10-10-10-10-10-10-10-10-10----10----10-10--|
|--------------------------------------------------------|
|--8--8--8--8--8--8--8--8--8--8--8--8--8-----8-----8--8--|
|--------------------------------------------------------|


  Dm
                            |----------3----------|
   H                       +Q         Q           Q
|---------------------------------------------------------|
|---------------------------------------------------------|
|---------------------------------------------------------|
|-15----------------------(15)-------12----------15-------|
|---------------------------------------------------------|
|---------------------------------------------------------|
|
|  S  S  S  S  S  S  S  S   S   S  S     S  S  S     S  S
|---------------------------------------------------------|
|---------------------------------------------------------|
|-10-10-10-10-10-10-10-10--10--10-10----10-10-10----10-10-|
|---------------------------------------------------------|
|--8--8--8--8--8--8--8--8---8---8--8-----8--8--8-----8--8-|
|---------------------------------------------------------|
|
|  S  S  S  S  S  S  S  S   S   S  S     S  S  S     S  S
|---------------------------------------------------------|
|---------------------------------------------------------|
|--7--7--7--7--7--7--7--7---7---7--7-----7--7--7-----7--7-|
|---------------------------------------------------------|
|--5--5--5--5--5--5--5--5---5---5--5-----5--5--5-----5--5-|
|---------------------------------------------------------|


  G5
                              |----------3----------|
   S  S  E     +Q            +Q         q           q
|--------------------------------------15----------17--------|
|------------------------------------------------------------|
|-14----12----(12)----------(12)-----------------------------|
|----15------------------------------------------------------|
|------------------------------------------------------------|
|------------------------------------------------------------|
|
|  S  S  S  S   S   S  S  S   S   S  S     S  S  S     S  S
|------------------------------------------------------------|
|------------------------------------------------------------|
|-12-12-12-12--12--12-12-12--12--12-12----12-12-12----12-12--|
|------------------------------------------------------------|
|-10-10-10-10--10--10-10-10--10--10-10----10-10-10----10-10--|
|------------------------------------------------------------|
|
|  W
|------------------------------------------------------------|
|------------------------------------------------------------|
|------------------------------------------------------------|
|------------------------------------------------------------|
|--5---------------------------------------------------------|
|--3---------------------------------------------------------|


  Eb
                            |---3----|     |---3----|
   Q.                 E     Q        E     Q        E
|-18-----------------17----18-------17----22-------18----|
|--------------------------------------------------------|
|--------------------------------------------------------|
|--------------------------------------------------------|
|--------------------------------------------------------|
|--------------------------------------------------------|
|
|  S   S  S  S  S  S  S  S  S  S  S     S  S  S  S     S
|--------------------------------------------------------|
|--------------------------------------------------------|
|-12--12-12-12-12-12-12-12-12-12-12----12-12-12-12----12-|
|--------------------------------------------------------|
|-10--10-10-10-10-10-10-10-10-10-10----10-10-10-10----10-|
|--------------------------------------------------------|
|
|  S   S  S  S  S  S  S  S  S  S  S     S  S  S  S     S
|--------------------------------------------------------|
|--------------------------------------------------------|
|--8---8--8--8--8--8--8--8--8--8--8-----8--8--8--8-----8-|
|--------------------------------------------------------|
|--6---6--6--6--6--6--6--6--6--6--6-----6--6--6--6-----6-|
|--------------------------------------------------------|


  F
   |---3----|                  |----------3----------|
   Q        E     Q           +Q         Q           Q
|-17---------------------------------------------------------|
|----------20----18----------(18)-------------------18-------|
|---------------------------------------19-------------------|
|------------------------------------------------------------|
|------------------------------------------------------------|
|------------------------------------------------------------|
|
|  S  S  S     S  S  S  S  S   S   S  S     S  S  S     S  S
|------------------------------------------------------------|
|------------------------------------------------------------|
|-14-14-14----14-14-14-14-14--14--14-14----14-14-14----14-14-|
|------------------------------------------------------------|
|-12-12-12----12-12-12-12-12--12--12-12----12-12-12----12-12-|
|------------------------------------------------------------|
|
|  S  S  S     S  S  S  S  S   S   S  S     S  S  S     S  S
|------------------------------------------------------------|
|------------------------------------------------------------|
|-10-10-10----10-10-10-10-10--10--10-10----10-10-10----10-10-|
|------------------------------------------------------------|
|--8--8--8-----8--8--8--8--8---8---8--8-----8--8--8-----8--8-|
|------------------------------------------------------------|


  Dm
   |--------3--------|                                     |---3----|
   E     +E          E          Q              E     E     S  S     S  E
|-------------------18------------------------------------------------------|
|-18----(18)b20----(18)pb20----18b20----------15----18----15h18p===15-------|
|---------------------------------------------------------------------17----|
|---------------------------------------------------------------------------|
|---------------------------------------------------------------------------|
|---------------------------------------------------------------------------|
|
|  S  S          S           S  S     S  S  S  S  S  S  S  S     S     S  S
|---------------------------------------------------------------------------|
|---------------------------------------------------------------------------|
|-10-10---------10----------10-10----10-10-10-10-10-10-10-10----10----10-10-|
|---------------------------------------------------------------------------|
|--8--8----------8-----------8--8-----8--8--8--8--8--8--8--8-----8-----8--8-|
|---------------------------------------------------------------------------|
|
|  S  S          S           S  S     S  S  S  S  S  S  S  S     S     S  S
|---------------------------------------------------------------------------|
|---------------------------------------------------------------------------|
|--7--7----------7-----------7--7-----7--7--7--7--7--7--7--7-----7-----7--7-|
|---------------------------------------------------------------------------|
|--5--5----------5-----------5--5-----5--5--5--5--5--5--5--5-----5-----5--5-|
|---------------------------------------------------------------------------|


  G5       F/A
   ~~~~~~~~~~~~~~~~~
   H        +H
|----------------------|
|----------------------|
|-17b19----(17)pb19----|
|----------------------|
|----------------------|
|----------------------|
|
|  H         H
|----------------------|
|----------------------|
|----------------------|
|-12--------15---------|
|-10--------12---------|
|----------------------|
|
|  H         H
|----------------------|
|----------------------|
|----------------------|
|----------------------|
|--5---------8---------|
|--3---------5---------|


 Outro
  Q=205
  N.C.    D5       Eb5          F5         Eb5  N.C.
  S S S S  S S S S  S S S S S S  S S   S S  S S S  S S S S  S  E S S  E
|------------------------------------|----------------------------------|
|------------------------------------|----------------------------------|
|------------------------------------|----------------------------------|
|-0-0-0-0-12-0-0-0-13-0-0-0-0-0-15-0-|-0-0-13-0-0--0-0-0-0h10h12-0h8h10-|
|------------------------------------|----------------------------------|
|------------------------------------|----------------------------------|
|
| Q        q        q       E    E     E    E   H.
|------------------------------------|----------------------------------|
|------------------------------------|----------------------------------|
|----------7--------8-----------10---|------8---------------------------|
|----------7--------8-----------10---|------8---------------------------|
|----------5--------6------------8---|------6---------------------------|
|------------------------------------|----------------------------------|


                                                 G5
  S  S  E S  S  E S  S  E S  S  E   S S  E S S E  q  Q
|---------------------------------|---------------------|
|---------------------------------|---------------------|
|---------------------------------|---------------------|
|-0h16-17-0h13h16-0h12-13-0h10h12-|-0h8h10-0h7-8--------|
|---------------------------------|--------------10-----|
|---------------------------------|---------------------|
|
| S  S  E S  S  E S  S  E S  S  E   S S  E S S E  q  Q
|---------------------------------|---------------------|
|---------------------------------|---------------------|
|---------------------------------|---------------------|
|-0h12h13-0h10h12-0h=8-10-0h=7h=8-|-0h5h=7-0h4-5--------|
|---------------------------------|---------------5-----|
|---------------------------------|---------------3-----|


  N.C.
  Wx4
|--------*|
|--------*|
|--------*|
|--------*|
|--------*|
|--------*|


Duration Legend
---------------
W - whole; H - half; Q - quarter; E - 8th; S - 16th; T - 32nd; X - 64th; a - acciaccatura
+ - note tied to previous; . - note dotted; .. - note double dotted
Uncapitalized letters represent notes that are staccato (1/2 duration)
Irregular groupings are notated above the duration line
Duration letters will always appear directly above the note/fret number it represents the
duration for.  Duration letters with no fret number below them represent rests.  Multi-
bar rests are notated in the form Wxn, where n is the number of bars to rest for.  Low
melody durations appear below the staff

Tablature Legend
----------------
 h   - hammer-on
 p   - pull-off
 b   - bend
 pb  - pre-bend
 r   - bend release (if no number after the r, then release immediately)
 /\  - slide into or out of (from/to "nowhere")
 s   - legato slide
 S   - shift slide
  - natural harmonic
[n]  - artificial harmonic
n(n) - tapped harmonic
 ~   - vibrato
 tr  - trill
 T   - tap
 TP  - trem. picking
 PM  - palm muting
\n/  - tremolo bar dip; n = amount to dip
 \n  - tremolo bar down
 n/  - tremolo bar up
/n\  - tremolo bar inverted dip
 =   - hold bend; also acts as connecting device for hammers/pulls
 <>  - volume swell (louder/softer)
 x   - on rhythm slash represents muted slash
 o   - on rhythm slash represents single note slash

Misc Legend
-----------
 |  - bar
||  - double bar
||o - repeat start
o|| - repeat end
*|  - double bar (ending)
 :  - bar (freetime)
 $  - Segno
 &  - Coda
Tempo markers -  = BPM(8/16=s8/s16), where s8 = swing 8ths, s16 = swing 16ths
comments
print report bad tab
44 comments total. Showing first comments.
0 reply
big bear wrote on August 31 2005, 12:00 am

Awesome job, dude, perfect.

0 reply
SexyJonisaJon wrote on September 24 2005, 05:00 pm

Nice

0 reply
guitarman47 wrote on October 24 2005, 12:47 pm

the tempo is 195 other than that its perfect

I want to post or [tab]
guest
You may want to rate the tab now too:
select rating
Please do not post tabs as comments. Select "correction" instead!