Oops, an error
Loading. Please wait.

Early Grave Tab

ver2
ver2

Whole song

More versions @911Tabs.com
14,700 views 21 this week
3 commentsread comments
1 2 3 4 5
excellent!
x 4
add to favorites launch autoscroll
font size
0
reset
Autoscroll
+/-
esc
set tempo
stop
Contributor
WARNING: You are trying to view
                                    content from Ultimate-Guitar.com
                                    in an unauthorized application,
                                    which is prohibited.

                                    Please use an official Ultimate
                                    Guitar Tabs application for iPhone,
                                    iPad or Android to access legitimate
                                    chords, guitar, bass, and drum tabs
                                    from Ultimate-Guitar.com database.

                                    Type "ultimate guitar tabs" in Apple
                                    App Store's or Android Market's
                                    search to find the application.
#----------------------------------PLEASE NOTE---------------------------------#
#This file is the author's own work and represents their interpretation of the #
#song. You may only use this file for private study, scholarship, or research. #
#------------------------------------------------------------------------------##

                                   EARLY GRAVE
                            As recorded by Achitects
                       (From the 2009 Album HOLLOW CROWN)

Words by Sam Carter

Music by Achitects
Transcribed by Jason Simpkin & Austin Mills

Gtr I (G# F# B E G# C#) - 'w/dist'
Gtr II (G# F# B E G# C#) - 'w/dist'
Gtr III (G# F# B E G# C#) - 'w/dist'

    Fast Metalcore Q=170
    N.C.
   7/8
    Gtrs I, II
      PM|   PM|     PM|     PM|   PM|     PM|
    E S S E S S E E S S   E S S E S S E E S S
||----------------------|---------------------|
||o---------------------|---------------------|
||----------------------|---------------------|
||----------------------|---------------------|
||o-------------2-------|-------------2-------|
||--0-0-0-0-0-0---1-0-0-|-0-0-0-0-0-0---1-0-0-|


    PM|   PM|     PM|     PM|   PM|     PM|
  E S S E S S E E S S   E S S E S S E E S S
|---------------------|----------------------|
|---------------------|----------------------|
|---------------------|----------------------|
|---------------------|----------------------|
|-------------2-------|-------------2--------|
|-0-0-0-0-0-0---1-0-0-|-0-0-0-0-0-0---1-0-0--|


  D#    C     B       D5      C5
 4/4
  E E E E E E E E   E E E E E E E E
|-----------------|------------------||-|
|-----------------|-----------------o||-|
|-----------------|------------------||-|
|-----------------|---7-7-7-7-5-5-5--||-|
|-6-6-6-3-3-3-2-2-|-2-5-5-5-5-3-3-3-o||-|
|-4-4-4-1-1-1-0-0-|-0----------------||-|


    D#    C     B       D5      C5
    E E E E E E E E   E E E E E E E E   3x
||------------------|-------------------||
||o-----------------|------------------o||
||------------------|-------------------||
||------------------|---7-7-7-7-5-5-5---||
||o-6-6-6-3-3-3-2-2-|-2-5-5-5-5-3-3-3--o||
||--4-4-4-1-1-1-0-0-|-0-----------------||


    N.C.
   4/4                         5/4
    Gtrs I, II
        PM----|                       PM|
    E E S S S S S S S S S S E   E E E S S S S S S S S S S S S S S
||----------------------------|------------------------------------|
||o---------------------------|-----------------0h3h6--------------|
||----------------------------|------------------------------------|
||----------------------------|-----------------------------0h4h7--|
||o-------------------0h3h6---|-----------------------0h3h6--------|
||--0---0-0-0-0-0h1h4-------0-|---0---0-0-0h1h4--------------------|


 4/4                     5/4
        PM|   PM              PM|
  Q  Q  S S S S S S S S   S S S S E. E. E E. E. E
|-----------------------|--------------------------||
|-----------------------|-------------------------o||
|-----------------------|--------------------------||
|---------------------0h|=4h7----------------------||
|---------------0h3h6---|-----------------6-------o||
|-4--1--0-0---0---------|-----0-0-3--0--1----0--1--||


    N.C.       GmaN.C.            GmaN.C.
   4/4
    Gtr I
       PM----|    PM|         PM|    PM|   PM------|
    Q  S S S S Q  S S E   +E  S S Q  S S S S S S S S
||----------------------|-----------------------------|
||o------------0--------|---------0-------------------|
||-------------0--------|---------0-------------------|
||-------------4--------|---------4-------------------|
||o------------2--------|---------2-------------------|
||--0--0-0-0-0----0-0-0-|-(0)-0-0----0-0---0-0-0-0-0--|
|
|   Gtr II
|      PM----|    PM|         PM|    PM|   PM------|
|   Q  S S S S Q  S S E   +E  S S Q  S S S S S S S S
||----------------------|-----------------------------|
||o------------0--------|---------0-------------------|
||-------------0--------|---------0-------------------|
||-------------4--------|---------4-------------------|
||o------------2--------|---------2-------------------|
||--0--0-0-0-0----0-0-0-|-(0)-0-0----0-0---0-0-0-0-0--|


                         1.                    2.
             GmaN.C.
     PM----|    PM----|
  Q  S S S S Q  S S S S   E. E. E  E.E. E       E. E. E  H
|-----------------------|--------------------||-----------------||
|------------0----------|-7--7--7--7-7--7---o||-7--7--7---------||
|------------0----------|-x--x--x--x-x--x----||-x--x--x---------||
|------------4----------|-5--5--5--5-5--5----||-5--5--5---------||
|------------2----------|-------------------o||-----------------||
|-0--0-0-0-0----0-0-0-0-|--------------------||-----------------||
|
|    PM----|    PM----|
| Q  S S S S Q  S S S S   H        H      a     H        H    a
|-----------------------|--------------------||-----------------||
|------------0----------|-------------------o||-----------------||
|------------0----------|--------------------||-----------------||
|------------4----------|--------------------||-----------------||
|------------2----------|-------------------o||-----------------||
|-0--0-0-0-0----0-0-0-0-|---------12s=====0--||---------12s===0-||


    N.C.
   7/8
    Gtrs I, II
      PM|   PM|     PM|     PM|   PM|     PM|
    E S S E S S E E S S   E S S E S S E E S S
||----------------------|---------------------|
||o---------------------|---------------------|
||----------------------|---------------------|
||----------------------|---------------------|
||o-------------2-------|-------------2-------|
||--0-0-0-0-0-0---1-0-0-|-0-0-0-0-0-0---1-0-0-|


    PM|   PM|     PM|     PM|   PM|     PM|
  E S S E S S E E S S   E S S E S S E E S S
|---------------------|----------------------|
|---------------------|----------------------|
|---------------------|----------------------|
|---------------------|----------------------|
|-------------2-------|-------------2--------|
|-0-0-0-0-0-0---1-0-0-|-0-0-0-0-0-0---1-0-0--|


  D#    C     B       D5      C5        D#    C     B       D5      C5
 4/4
  E E E E E E E E   E E E E E E E E     E E E E E E E E   E E E E E E E E
|-----------------|------------------||-----------------|-----------------||
|-----------------|-----------------o||-----------------|-----------------||
|-----------------|------------------||-----------------|-----------------||
|-----------------|---7-7-7-7-5-5-5--||-----------------|---7-7-7-7-5-5-5-||
|-6-6-6-3-3-3-2-2-|-2-5-5-5-5-3-3-3-o||-6-6-6-3-3-3-2-2-|-2-5-5-5-5-3-3-3-||
|-4-4-4-1-1-1-0-0-|-0----------------||-4-4-4-1-1-1-0-0-|-0---------------||


  B5    N.C.
  Gtrs I, II
        PM
  E. E. E H      +W           +W           +W
|--------------|------------|------------|--------|
|--------------|------------|------------|--------|
|--------------|------------|------------|--------|
|-4--4---------|------------|------------|--------|
|-2--2---------|------------|------------|--------|
|-------0-0----|-(0)--------|-(0)--------|-(0)----|


                                         C5 N.CC5N.C.
                                            PM     PM--|
  +W           +W           +W           E. E. E E S S S E.
|------------|------------|------------|---------0----------||
|------------|------------|------------|---------0----------||
|------------|------------|------------|---------0----------||
|------------|------------|------------|-5-----5------------||
|------------|------------|------------|-3-----3------------||
|-(0)--------|-(0)--------|-(0)--------|----0------0-0-0----||


    B5    N.C.     C5 N.CC5N.CB5 C5  B5    N.C.     C5 N.CC5N.C.
    Gtrs I, II
          PM          PM                   PM          PM     PM--------|
    E. E. E H      E. E. E E. E. E   E. E. E H      E. E. E E S S S S S S
||---------------|---------0-------|--------------|---------0--------------|
||o--------------|---------0-------|--------------|---------0--------------|
||---------------|---------0-------|--------------|---------0--------------|
||--4--4---------|-5-----5----4--5-|-4--4---------|-5-----5----------------|
||o-2--2---------|-3-----3----2--3-|-2--2---------|-3-----3----------------|
||--------0-0----|----0------------|-------0-0----|----0------0-0-0-0-0-0--|


  B5    N.C.     C5 N.CC5N.CB5 C5  B5    N.C.
        PM          PM                   PM
  E. E. E H      E. E. E E. E. E   E. E. E H
|--------------|---------0-------|--------------|
|--------------|---------0-------|--------------|
|--------------|---------0-------|--------------|
|-4--4---------|-5-----5----4--5-|-4--4---------|
|-2--2---------|-3-----3----2--3-|-2--2---------|
|-------0-0----|----0------------|-------0-0----|


 1.                   2.
  C5 N.CC5  N.C.
     PM     PM--|
  E. E. E E S S Q      E. E. E E. E. E
|---------0---------||------------------||
|---------0--------o||------------------||
|---------0---------||------------------||
|-5-----5-----------||------------------||
|-3-----3----------o||---------6--------||
|----0------0-0-0---||-3--0--1----0--1--||


    N.C.
                               5/4
    Gtrs I, II
        PM----|                       PM|
    E E S S S S S S S S S S E   E E E S S S S S S S S S S S S S S
||----------------------------|-----------------------------------|
||o---------------------------|-----------------0h3h6-------------|
||----------------------------|-----------------------------------|
||----------------------------|-----------------------------0h4h7-|
||o-------------------0h3h6---|-----------------------0h3h6-------|
||--0---0-0-0-0-0h1h4-------0-|---0---0-0-0h1h4-------------------|


 4/4                     5/4
        PM|   PM              PM|
  Q  Q  S S S S S S S S   S S S S E. E. E E. E. E
|-----------------------|--------------------------||
|-----------------------|-------------------------o||
|-----------------------|--------------------------||
|---------------------0h|=4h7----------------------||
|---------------0h3h6---|-----------------6-------o||
|-4--1--0-0---0---------|-----0-0-3--0--1----0--1--||


    N.C.          GmajN.C.        Gmaj7N.C.
   4/4
    Gtr I
       PM----|    PM|         PM|    PM|   PM------|
    Q  S S S S Q  S S E   +E  S S Q  S S S S S S S S
||----------------------|-----------------------------|
||o------------0--------|---------0-------------------|
||-------------0--------|---------0-------------------|
||-------------4--------|---------4-------------------|
||o------------2--------|---------2-------------------|
||--0--0-0-0-0----0-0-0-|-(0)-0-0----0-0---0-0-0-0-0--|
|
|   Gtr II
|      PM----|    PM|         PM|    PM|   PM------|
|   Q  S S S S Q  S S E   +E  S S Q  S S S S S S S S
||----------------------|-----------------------------|
||o------------0--------|---------0-------------------|
||-------------0--------|---------0-------------------|
||-------------4--------|---------4-------------------|
||o------------2--------|---------2-------------------|
||--0--0-0-0-0----0-0-0-|-(0)-0-0----0-0---0-0-0-0-0--|


                         1.                    2.
                GN.C./B
     PM----|    PM----|
  Q  S S S S Q  S S S S   E. E. E  E.E. E       E. E. E  E. E. E
|-----------------------|--------------------||--------------------||
|------------0----------|-7--7--7--7-7--7---o||-7--7--7--7--7--7---||
|------------0----------|-x--x--x--x-x--x----||-x--x--x--x--x--x---||
|------------4----------|-5--5--5--5-5--5----||-5--5--5--5--5--5---||
|------------2----------|-------------------o||--------------------||
|-0--0-0-0-0----0-0-0-0-|--------------------||--------------------||
|
|                                                        <
|    PM----|    PM----|
| Q  S S S S Q  S S S S   H        H      a     H        H
|-----------------------|--------------------||---------10---------||
|------------0----------|-------------------o||---------14---------||
|------------0----------|--------------------||--------------------||
|------------4----------|--------------------||--------------------||
|------------2----------|-------------------o||--------------------||
|-0--0-0-0-0----0-0-0-0-|---------12s=====0--||--------------------||


    N.C.
   7/8
    Gtr III
     T                  T                  T                  T
     E E E  E  E E E    E E E  E  E E E    E E E  E  E E E    E E E  E  E E E
||-------------------|------------------|------------------|------------------|
||o-15p0h7-15s14p0h7-|-15p0h7-15s14p0h7-|-15p0h7-15s14p0h7-|-15p0h7-15s14p0h7-|
||-------------------|------------------|------------------|------------------|
||-------------------|------------------|------------------|------------------|
||o------------------|------------------|------------------|------------------|
||-------------------|------------------|------------------|------------------|
|
|   Gtrs I, II
|      PM--|     PM|      PM--|     PM|      PM--|     PM|      PM--|     PM|
|    E E E  E  E E E    E E E  E  E E E    E E E  E  E E E    E E E  E  E E E
||-------------------|------------------|------------------|------------------|
||o------------------|------------------|------------------|------------------|
||-------------------|------------------|------------------|------------------|
||-------------------|------------------|------------------|------------------|
||o------------------|------------------|------------------|------------------|
||---0-0-0--0--0-0-0-|--0-0-0--0--0-0-0-|--0-0-0--0--0-0-0-|--0-0-0--0--0-0-0-|


  A5/D                   D5
  Gtr III
   T     T  T  T          T     T  T  T
   E  E  E  E  E  E  E    E  E  E  E  E  E  E
|-17p=0-----5----------|-17p=0-----5----------|
|--------3----14p=0h=3-|--------3----14p=0h=3-|
|----------------------|----------------------|
|----------------------|----------------------|
|----------------------|----------------------|
|----------------------|----------------------|
|
| Gtr I
|  E  E  E  E  E  E  E    E  E  E  E  E  E  E
|----------------------|----------------------|
|----------------------|----------------------|
|--9--9--9--9--9--9--9-|--7--7--7--7--7--7--7-|
|--7--7--7--7--7--7--7-|--7--7--7--7--7--7--7-|
|--5--5--5--5--5--5--5-|--5--5--5--5--5--5--5-|
|----------------------|----------------------|
|
| Gtr II
|  E  E  E  E  E  E  E    E  E  E  E  E  E  E
|----------------------|----------------------|
|-17-17-17-17-17-17-17-|-15-15-15-15-15-15-15-|
|--x--x--x--x--x--x--x-|--x--x--x--x--x--x--x-|
|-14-14-14-14-14-14-14-|-12-12-12-12-12-12-12-|
|----------------------|----------------------|
|----------------------|----------------------|


  A5/D                   A/D
   T     T  T  T          T     T  T  T
   E  E  E  E  E  E  E    E  E  E  E  E  E  E
|-17p=0-----5----------|-17p=0-----5-----------||
|--------3----14p=0h=3-|--------3----14p=0h=3-o||
|----------------------|-----------------------||
|----------------------|-----------------------||
|----------------------|----------------------o||
|----------------------|-----------------------||
|
|  E  E  E  E  E  E  E    E  E  E  E  E  E  E
|----------------------|-----------------------||
|----------------------|----------------------o||
|--9--9--9--9--9--9--9-|--6--6--6--6--6--6--6--||
|--7--7--7--7--7--7--7-|--7--7--7--7--7--7--7--||
|--5--5--5--5--5--5--5-|--5--5--5--5--5--5--5-o||
|----------------------|-----------------------||
|
|  E  E  E  E  E  E  E    E  E  E  E  E  E  E
|----------------------|-----------------------||
|-17-17-17-17-17-17-17-|-14-14-14-14-14-14-14-o||
|--x--x--x--x--x--x--x-|--x--x--x--x--x--x--x--||
|-14-14-14-14-14-14-14-|-11-11-11-11-11-11-11--||
|----------------------|----------------------o||
|----------------------|-----------------------||


    A/C#                   D5/C#
     T     T  T  T          T     T  T  T
     E  E  E  E  E  E  E    E  E  E  E  E  E  E
||--17p=0-----5----------|-17p=0-----5----------|
||o--------3----14p=0h=2-|--------3----14p=0h=2-|
||-----------------------|----------------------|
||-----------------------|----------------------|
||o----------------------|----------------------|
||-----------------------|----------------------|
|
|    E  E  E  E  E  E  E    E  E  E  E  E  E  E
||-----------------------|----------------------|
||o----------------------|----------------------|
||---9--9--9--9--9--9--9-|--7--7--7--7--7--7--7-|
||---7--7--7--7--7--7--7-|--7--7--7--7--7--7--7-|
||o--4--4--4--4--4--4--4-|--4--4--4--4--4--4--4-|
||-----------------------|----------------------|
|
|    E  E  E  E  E  E  E    E  E  E  E  E  E  E
||-----------------------|----------------------|
||o-17-17-17-17-17-17-17-|-15-15-15-15-15-15-15-|
||---x--x--x--x--x--x--x-|--x--x--x--x--x--x--x-|
||--14-14-14-14-14-14-14-|-12-12-12-12-12-12-12-|
||o----------------------|----------------------|
||-----------------------|----------------------|


  A/C#                   A/C#
   T     T  T  T          T     T  T  T
   E  E  E  E  E  E  E    E  E  E  E  E  E  E
|-17p=0-----5----------|-17p=0-----5-----------|
|--------3----14p=0h=2-|--------3----14p=0h=2--|
|----------------------|-----------------------|
|----------------------|-----------------------|
|----------------------|-----------------------|
|----------------------|-----------------------|
|
|  E  E  E  E  E  E  E    E  E  E  E  E  E  E
|----------------------|-----------------------|
|----------------------|-----------------------|
|--9--9--9--9--9--9--9-|--6--6--6--6--6--6--6--|
|--7--7--7--7--7--7--7-|--7--7--7--7--7--7--7--|
|--4--4--4--4--4--4--4-|--4--4--4--4--4--4--4--|
|----------------------|-----------------------|
|
|  E  E  E  E  E  E  E    E  E  E  E  E  E  E
|----------------------|-----------------------|
|-17-17-17-17-17-17-17-|-14-14-14-14-14-14-14--|
|--x--x--x--x--x--x--x-|--x--x--x--x--x--x--x--|
|-14-14-14-14-14-14-14-|-11-11-11-11-11-11-11--|
|----------------------|-----------------------|
|----------------------|-----------------------|


  1.
  A5/D                   D5
   T     T  T  T          T     T  T  T
   E  E  E  E  E  E  E    E  E  E  E  E  E  E
|-17p=0-----5----------|-17p=0-----5----------|
|--------3----14p=0h=3-|--------3----14p=0h=3-|
|----------------------|----------------------|
|----------------------|----------------------|
|----------------------|----------------------|
|----------------------|----------------------|
|
|  E  E  E  E  E  E  E    E  E  E  E  E  E  E
|----------------------|----------------------|
|----------------------|----------------------|
|--9--9--9--9--9--9--9-|--7--7--7--7--7--7--7-|
|--7--7--7--7--7--7--7-|--7--7--7--7--7--7--7-|
|--5--5--5--5--5--5--5-|--5--5--5--5--5--5--5-|
|----------------------|----------------------|
|
|  E  E  E  E  E  E  E    E  E  E  E  E  E  E
|----------------------|----------------------|
|-17-17-17-17-17-17-17-|-15-15-15-15-15-15-15-|
|--x--x--x--x--x--x--x-|--x--x--x--x--x--x--x-|
|-14-14-14-14-14-14-14-|-12-12-12-12-12-12-12-|
|----------------------|----------------------|
|----------------------|----------------------|


  A5/D                   A/D
   T     T  T  T          T     T  T  T
   E  E  E  E  E  E  E    E  E  E  E  E  E  E
|-17p=0-----5----------|-17p=0-----5-----------||
|--------3----14p=0h=3-|--------3----14p=0h=3-o||
|----------------------|-----------------------||
|----------------------|-----------------------||
|----------------------|----------------------o||
|----------------------|-----------------------||
|
|  E  E  E  E  E  E  E    E  E  E  E  E  E  E
|----------------------|-----------------------||
|----------------------|----------------------o||
|--9--9--9--9--9--9--9-|--6--6--6--6--6--6--6--||
|--7--7--7--7--7--7--7-|--7--7--7--7--7--7--7--||
|--5--5--5--5--5--5--5-|--5--5--5--5--5--5--5-o||
|----------------------|-----------------------||
|
|  E  E  E  E  E  E  E    E  E  E  E  E  E  E
|----------------------|-----------------------||
|-17-17-17-17-17-17-17-|-14-14-14-14-14-14-14-o||
|--x--x--x--x--x--x--x-|--x--x--x--x--x--x--x--||
|-14-14-14-14-14-14-14-|-11-11-11-11-11-11-11--||
|----------------------|----------------------o||
|----------------------|-----------------------||


  2.
  B5    N.C.                                C5 N.CC5N.C.
 4/4
  Gtr III
  ~~~~~~~~~~~~~~~~~~~~~~~~~~~~~~~~~
  W               +W           +W           W
|---------------|------------|------------|-----------------------||
|-3-------------|-(3)--------|-(3)--------|-----------------------||
|---------------|------------|------------|-----------------------||
|---------------|------------|------------|-----------------------||
|---------------|------------|------------|-----------------------||
|---------------|------------|------------|-----------------------||
|
| Gtrs I, II
|       PM                                     PM     PM--------|
| E. E. E H       +W           +W           E. E. E E S S S S S S
|---------------|------------|------------|---------0-------------||
|---------------|------------|------------|---------0-------------||
|---------------|------------|------------|---------0-------------||
|-4--4----------|------------|------------|-5-----5---------------||
|-2--2----------|------------|------------|-3-----3---------------||
|-------0-0-----|-(0)--------|-(0)--------|----0------0-0-0-0-0-0-||


  N.C.
  Gtr I
                                                            <
  PM------------------------------------------------------|
  E E   E E E E E E   E E E E E E E E   E E E E E E E E   E E  E  E E E E E
|-------------------|-----------------|-----------------|-----(0)-0-0-0-0-0-|
|-------------------|-----------------|-----------------|---0--0--0-0-0-0-0-|
|-------------------|-----------------|-----------------|---5--5--5-5-5-5-5-|
|-------------------|-----------------|-----------------|-------------------|
|-------------------|-----------------|-----------------|-------------------|
|-0-0---0-0-0-0-0-0-|-0-0-0-0-0-0-0-0-|-0-0-0-0-0-0-0-0-|-0-----------------|
|
| Gtr II
| E H..               W                 W                 W
|-------------------|-----------------|-----------------|-------------------|
|-------------------|-----------------|-----------------|-------------------|
|-------------------|-----------------|-----------------|-------------------|
|-------------------|-----------------|-----------------|-------------------|
|-------------------|-----------------|-----------------|-------------------|
|-0-----------------|-----------------|-----------------|-------------------|


                                                          <
  PM----------------------------------------------------|
  E E E E E E E E   E E E E E E E E   E E E E E E E E   E E  E  E E E E E
|-----------------|-----------------|-----------------|-----(0)-0-0-0-0-0-|
|-----------------|-----------------|-----------------|---0--0--0-0-0-0-0-|
|-----------------|-----------------|-----------------|---5--5--5-5-5-5-5-|
|-----------------|-----------------|-----------------|-------------------|
|-----------------|-----------------|-----------------|-------------------|
|-0-0-0-0-0-0-0-0-|-0-0-0-0-0-0-0-0-|-0-0-0-0-0-0-0-0-|-0-----------------|
|
| W                 W                 W                 W
|-----------------|-----------------|-----------------|-------------------|
|-----------------|-----------------|-----------------|-------------------|
|-----------------|-----------------|-----------------|-------------------|
|-----------------|-----------------|-----------------|-------------------|
|-----------------|-----------------|-----------------|-------------------|
|-----------------|-----------------|-----------------|-------------------|


                                                          <
  PM----------------------------------------------------|
  E E E E E E E E   E E E E E E E E   E E E E E E E E   E E  E  E E E E E
|-----------------|-----------------|-----------------|-----(0)-0-0-0-0-0-|
|-----------------|-----------------|-----------------|---0--0--0-0-0-0-0-|
|-----------------|-----------------|-----------------|---5--5--5-5-5-5-5-|
|-----------------|-----------------|-----------------|-------------------|
|-----------------|-----------------|-----------------|-------------------|
|-0-0-0-0-0-0-0-0-|-0-0-0-0-0-0-0-0-|-0-0-0-0-0-0-0-0-|-0-----------------|
|
|                                                         <
| PM----------------------------------------------------|
| E E E E E E E E   E E E E E E E E   E E E E E E E E   E E  E  E E E E E
|-----------------|-----------------|-----------------|-----(0)-0-0-0-0-0-|
|-----------------|-----------------|-----------------|---0--0--0-0-0-0-0-|
|-----------------|-----------------|-----------------|---5--5--5-5-5-5-5-|
|-----------------|-----------------|-----------------|-------------------|
|-----------------|-----------------|-----------------|-------------------|
|-0-0-0-0-0-0-0-0-|-0-0-0-0-0-0-0-0-|-0-0-0-0-0-0-0-0-|-0-----------------|


                                                          <
  PM----------------------------------------------------|
  E E E E E E E E   E E E E E E E E   E E E E E E E E   E E    E  E E E E E
|-----------------|-----------------|-----------------|-------(0)-0-0-0-0-0-||
|-----------------|-----------------|-----------------|---0----0--0-0-0-0-0-||
|-----------------|-----------------|-----------------|---5----5--5-5-5-5-5-||
|-----------------|-----------------|-----------------|---------------------||
|-----------------|-----------------|-----------------|---------------------||
|-0-0-0-0-0-0-0-0-|-0-0-0-0-0-0-0-0-|-0-0-0-0-0-0-0-0-|-0-------------------||
|
| PM----------------------------------------------------|
| E E E E E E E E   E E E E E E E E   E E E E E E E E   E H..
|-----------------|-----------------|-----------------|---------------------||
|-----------------|-----------------|-----------------|---------------------||
|-----------------|-----------------|-----------------|---------------------||
|-----------------|-----------------|-----------------|---------------------||
|-----------------|-----------------|-----------------|---------------------||
|-0-0-0-0-0-0-0-0-|-0-0-0-0-0-0-0-0-|-0-0-0-0-0-0-0-0-|-0-------------------||


    Asus2/B                                                 N.C.
    Gtrs I, II
    PM----------------------------------------------------|
    E E E E E E E E   E E E E E E E E   E E E E E E E E   E E  E  E E E E E   4x
||------------------|-----------------|-----------------|-----(0)-0-0-0-0-0---||
||o-----------------|-----------------|-----------------|---0--0--0-0-0-0-0--o||
||------------------|-----------------|-----------------|---5--5--5-5-5-5-5---||
||------------------|-----------------|-----------------|---------------------||
||o-0-0-0-0-0-0-0-0-|-0-0-0-0-0-0-0-0-|-0-0-0-0-0-0-0-0-|-0------------------o||
||--0-0-0-0-0-0-0-0-|-0-0-0-0-0-0-0-0-|-0-0-0-0-0-0-0-0-|-0-------------------||


  E H..         W
|-0-----------|------*|
|-0-----------|------*|
|-5-----------|------*|
|-------------|------*|
|-------------|------*|
|-------------|------*|


Duration Legend
---------------
W - whole; H - half; Q - quarter; E - 8th; S - 16th; T - 32nd; X - 64th; a - acciaccatura
+ - note tied to previous; . - note dotted; .. - note double dotted
Uncapitalized letters represent notes that are staccato (1/2 duration)
Irregular groupings are notated above the duration line
Duration letters will always appear directly above the note/fret number it represents the
duration for.  Duration letters with no fret number below them represent rests.  Multi-
bar rests are notated in the form Wxn, where n is the number of bars to rest for.  Low
melody durations appear below the staff

Tablature Legend
----------------
 h   - hammer-on
 p   - pull-off
 b   - bend
 pb  - pre-bend
 r   - bend release (if no number after the r, then release immediately)
 /\  - slide into or out of (from/to "nowhere")
 s   - legato slide
 S   - shift slide
  - natural harmonic
[n]  - artificial harmonic
n(n) - tapped harmonic
 ~   - vibrato
 tr  - trill
 T   - tap
 TP  - trem. picking
 PM  - palm muting
\n/  - tremolo bar dip; n = amount to dip
 \n  - tremolo bar down
 n/  - tremolo bar up
/n\  - tremolo bar inverted dip
 =   - hold bend; also acts as connecting device for hammers/pulls
 <>  - volume swell (louder/softer)
 x   - on rhythm slash represents muted slash
 o   - on rhythm slash represents single note slash

Misc Legend
-----------
 |  - bar
||  - double bar
||o - repeat start
o|| - repeat end
*|  - double bar (ending)
 :  - bar (freetime)
 $  - Segno
 &  - Coda
Tempo markers -  = BPM(8/16=s8/s16), where s8 = swing 8ths, s16 = swing 16ths


***************************************************************************************
* Generated using Power Tab Editor by Brad Larsen - http://powertab.guitarnetwork.org *
***************************************************************************************
comments
print report bad tab
3 comments total.
0 reply
Stevie Hardcore wrote on July 22 2009, 09:41 am

It's very precisely, great tab!
I appreciate the work you've put into this.

0 reply
henry18 wrote on August 16 2010, 01:23 pm

sick tab, but I thought that Architects played in drop b

0 reply
Jay-WatchUsFall wrote on September 3 2010, 02:49 pm

Yeah, most of the strings are tuned how drop b is, however the lowest string is tuned to G# ...Sick tab man! Just learned it all :) It's perfect, you even got that 14/10 bit on the highest strings after that chorus haha

I want to post or [tab]
guest
You may want to rate the tab now too:
select rating
Please do not post tabs as comments. Select "correction" instead!