Oops, an error
Loading. Please wait.

Hunt Them Down Tab

1,868 views 1 this week
1 commentread comment
1 2 3 4 5
worth learning
x 3
add to favorites launch autoscroll
font size
0
reset
Autoscroll
+/-
esc
set tempo
stop
Contributor
WARNING: You are trying to view
                                    content from Ultimate-Guitar.com
                                    in an unauthorized application,
                                    which is prohibited.

                                    Please use an official Ultimate
                                    Guitar Tabs application for iPhone,
                                    iPad or Android to access legitimate
                                    chords, guitar, bass, and drum tabs
                                    from Ultimate-Guitar.com database.

                                    Type "ultimate guitar tabs" in Apple
                                    App Store's or Android Market's
                                    search to find the application.
ARCHITECTS - HUNT THEM DOWN (Ruin)

DROP B TUNING - B F# B E G# C#



Gtr I
----------------------------------|--------------------------------------|
----------------------------------|--------------------------------------|
----------------------------------|--------------------------------------|
--7-------------------------------|--------------------------------------|
--5-------------------------------|--------------------------------------|
-------0--0--0--0--0--0--0--0--0--|--0--0--0--0--0--0--0--0--0--0--0--0--|
       |--3--|  |--3--|  |--3--|     |--3--|  |--3--|  |--3--|  |--3--| 
     pm----------------------------------------------------------------

Gtr II
----------------------------------|--------------------------------|
----------------------------------|--------------------------------|
----------------------------------|--------------------------------|
--7-------------------------------|--------------------7--7--7--7--|
--5-------------------------------|--------------------5--5--5--5--|
-------0--0--0--0--0--0--0--0--0--|--0--0--0--0--0--0--------------|
       |--3--|  |--3--|  |--3--|     |--3--|  |--3--|    
     pm----------------------------------------------



-------------------------|----------------------------|
-------------------------|----------------------------|
-------------------------|----------------------------|
-------------------7--8--|-------------10--8--11--10--|
--3--4-----1----1--5--6--|-----7----7---8--6---9---8--|
--3--4-----1----1--------|-----7----7-----------------|



Gtr I
----------------------------------|--------------------------------------|
----------------------------------|--------------------------------------|
----------------------------------|--------------------------------------|
--7-------------------------------|--------------------------------------|
--5-------------------------------|--------------------------------------|
-------0--0--0--0--0--0--0--0--0--|--0--0--0--0--0--0--0--0--0--0--0--0--|
       |--3--|  |--3--|  |--3--|     |--3--|  |--3--|  |--3--|  |--3--| 
     pm----------------------------------------------------------------

Gtr II
----------------------------------|--------------------------|
----------------------------------|--9--9--9--9--9--9--9--9--|
----------------------------------|--------------------------|
--7-------------------------------|--6--6--6--6--6--6--6--6--|
--5-------------------------------|--------------------------|
-------0--0--0--0--0--0--0--0--0--|--------------------------|
       |--3--|  |--3--|  |--3--|
     pm-------------------------



-------------------------|----------------------------|
-------------------------|----------------------------|
-------------------------|----------------------------|
-------------------7--8--|-------------10--8--11--10--|
--3--4-----1----1--5--6--|-----7----7---8--6---9---8--|
--3--4-----1----1--------|-----7----7-----------------|

-------------------------|----------------------------|
-------------------------|----------------------------|
-------------------------|----------------------------|
-------------------7--8--|-------------10--8--11--10--|
--3--4-----1----1--5--6--|-----7----7---8--6---9---8--|
--3--4-----1----1--------|-----7----7-----------------|



Gtr I
---------------------------|-----------------------|
---------------------------|-----------------------|
---------------------------|-----------------8--7--|
--10\--------------10--11--|-----------------------|
---8\----3------3---8---9--|--4----1------1--6--5--|
---------3------3----------|--4----1------1--------|

Gtr II
---------------------------|------------------------|
---------------------------|------------------------|
---------------------------|-----------------12--11-|
--10\--------------10--11--|------------------------|
---8\----3------3---8---9--|--4----1------1--10--9--|
---------3------3----------|--4----1------1---------|


Gtr I
---------------------------|-----------------------|
---------------------------|-----------------------|
---------------------------|-----------------8--7--|
--10\--------------10--11--|-----------------------|
---8\----3------3---8---9--|--4----1------1--6--5--|
---------3------3----------|--4----1------1--------|

Gtr II
---------------------------|------------------------|
---------------------------|------------------------|
---------------------------|-----------------12--11-|
--10\--------------10--11--|------------------------|
---8\----3------3---8---9--|--4----1------1--10--9--|
---------3------3----------|--4----1------1---------|


           
-------------------|-------------------|
-------------------|-------------------|
-------------------|-------------------|
-------------------|-------------------|
-------------------|-------------------|
--0----------------|-------------------|



--------------------------------------|--------------0-----------|
--------------------------------------|--------------0-----------|
--------------------------------------|--------------------------|
--6--6--6-----------------------------|--------------------------|
-----------5--5--5--------------------|--3--4--3--0-----0--0--0--|
--------------------7--7--7--6--6--6--|--3--4--3--0-----0--0--0--|
  |--3--|  |--3--|  |--3--|  |--3--|   pm----------     -------

--------------------------------------|-------------0-----------0----|
--------------------------------------|-------------0-----------0----|
--------------------------------------|------------------------------|
--6--6--6-----------------------------|------------------------------|
-----------5--5--5--------------------|--3---4---3-----0--0--0-------|
--------------------7--7--7--6--6--6--|--3---4---3-----0--0--0-------|
  |--3--|  |--3--|  |--3--|  |--3--|   pm---------     -------


--------------------------------------|--------------0-----------|
--------------------------------------|--------------0-----------|
--------------------------------------|--------------------------|
--6--6--6-----------------------------|--------------------------|
-----------5--5--5--------------------|--3--4--3--0-----0--0--0--|
--------------------7--7--7--6--6--6--|--3--4--3--0-----0--0--0--|
  |--3--|  |--3--|  |--3--|  |--3--|   pm---------     --------

--------------------------------------|-------------0-----------|
--------------------------------------|-------------0-----------|
--------------------------------------|-------------------------|
--6--6--6-----------------------------|-------------------------|
-----------5--5--5--------------------|--3---4---3-----0--0--0--|
--------------------7--7--7--6--6--6--|--3---4---3-----0--0--0--|
  |--3--|  |--3--|  |--3--|  |--3--|   pm---------     -------


--------------0-----------|-------------0-----------|--------------0-----------|
--------------0-----------|-------------0-----------|--------------0-----------|
--------------------------|-------------------------|--------------------------|
--------------------------|-------------------------|--------------------------|
--3--4--3--0-----0--0--0--|--3---4---3-----0--0--0--|--3--4--3--0-----0--0--0--|
--3--4--3--0-----0--0--0--|--3---4---3-----0--0--0--|--3--4--3--0-----0--0--0--|
pm----------     ---------------------     ----------------------     -------

                                       

--------------------------------------|--------------------------------------|
--------------------------------------|--------------------------------------|
--------------------------------------|--------------------------------------|
--------------------------------------|--------------------------------------|
--3--3--3--3--3--3--3--3--3--3--3--3--|--------------------------------------|
--3--3--3--3--3--3--3--3--3--3--3--3--|--7--7--7--7--7--7--7--7--7--7--7--7--|
  |--3--|  |--3--|  |--3--|  |--3--|     |--3--|  |--3--|  |--3--|  |--3--|   
pm----------------------------------

--------------------------------------|--------------------------------------|
--------------------------------------|--------------------------------------|
--------------------------------------|--------------------------------------|
--------------------------------------|--------------------------------------|
--3--3--3--3--3--3--3--3--3--3--3--3--|--------------------------------------|
--3--3--3--3--3--3--3--3--3--3--3--3--|--7--7--7--7--7--7--7--7--7--7--7--7--|
  |--3--|  |--3--|  |--3--|  |--3--|     |--3--|  |--3--|  |--3--|  |--3--|   
pm---------------------------------- 

--------------------------------------|--------------------------------------|
--------------------------------------|--------------------------------------|
--------------------------------------|--------------------------------------|
--------------------------------------|--------------------------------------|
--0--0--0--0--0--0--0--0--0--0--0--0--|--------------------------------------|
--3--3--3--3--3--3--3--3--3--3--3--3--|--7--7--7--7--7--7--7--7--7--7--7--7--|
  |--3--|  |--3--|  |--3--|  |--3--|     |--3--|  |--3--|  |--3--|  |--3--|   
pm----------------------------------

--------------------------------------|--------------------------------------|
--------------------------------------|--------------------------------------|
--------------------------------------|--------------------------------------|
--------------------------------------|--------------------------------------|
--0--0--0--0--0--0--0--0--0--0--0--0--|--------------------------------------|
--3--3--3--3--3--3--3--3--3--3--3--3--|--4--4--4--4--4--4--6--6--6--6--6--6--|
  |--3--|  |--3--|  |--3--|  |--3--|     |--3--|  |--3--|  |--3--|  |--3--|   
pm----------------------------------


--------------------------------------|--------------------------------------|
--------------------------------------|--------------------------------------|
--------------------------------------|--------------------------------------|
--------------------------------------|--------------------------------------|
--3--3--3--3--3--3--3--3--3--3--3--3--|--------------------------------------|
--3--3--3--3--3--3--3--3--3--3--3--3--|--7--7--7--7--7--7--7--7--7--7--7--7--|
  |--3--|  |--3--|  |--3--|  |--3--|     |--3--|  |--3--|  |--3--|  |--3--|   
pm----------------------------------

--------------------------------------|--------------------------------------|
--------------------------------------|--------------------------------------|
--------------------------------------|--------------------------------------|
--------------------------------------|--------------------------------------|
--3--3--3--3--3--3--3--3--3--3--3--3--|--------------------------------------|
--3--3--3--3--3--3--3--3--3--3--3--3--|--7--7--7--7--7--7--7--7--7--7--7--7--|
  |--3--|  |--3--|  |--3--|  |--3--|     |--3--|  |--3--|  |--3--|  |--3--|   
pm----------------------------------

--------------------------------------|--------------------------------------|
--------------------------------------|--------------------------------------|
--------------------------------------|--------------------------------------|
--------------------------------------|--------------------------------------|
--0--0--0--0--0--0--0--0--0--0--0--0--|--------------------------------------|
--3--3--3--3--3--3--3--3--3--3--3--3--|--7--7--7--7--7--7--7--7--7--7--7--7--|
  |--3--|  |--3--|  |--3--|  |--3--|     |--3--|  |--3--|  |--3--|  |--3--|   
pm----------------------------------

--------------------------------------|--------------------------------------|
--------------------------------------|--------------------------------------|
--------------------------------------|--------------------------------------|
--------------------------------------|--------------------------------------|
--0--0--0--0--0--0--0--0--0--0--0--0--|--------------------------------------|
--3--3--3--3--3--3--3--3--3--3--3--3--|--4--4--4--4--4--4--1--1--1--1--1--1--|
  |--3--|  |--3--|  |--3--|  |--3--|     |--3--|  |--3--|  |--3--|  |--3--|   
pm----------------------------------



Gtr I
-------------------|-------------------|
-------------------|-------------------|
-------------------|-------------------|
-------------------|-------------------|
-------------------|-------------------|
--0----------------|-------------------|

Gtr II
-------------------------|----------------------------|
-------------------------|----------------------------|
-------------------------|----------------------------|
-------------------7--8--|-------------10--8--11--10--|
--3--4-----1----1--5--6--|-----7----7---8--6---9---8--|
--3--4-----1----1--------|-----7----7-----------------|


-------------------------|----------------------------|
-------------------------|----------------------------|
-------------------------|----------------------------|
-------------------7--8--|-------------10--8--11--10--|
--3--4-----1----1--5--6--|-----7----7---8--6---9---8--|
--3--4-----1----1--------|-----7----7-----------------|
  
-------------------------|----------------------------|
-------------------------|----------------------------|
-------------------------|----------------------------|
-------------------7--8--|-------------10--8--11--10--|
--3--4-----1----1--5--6--|-----7----7---8--6---9---8--|
--3--4-----1----1--------|-----7----7-----------------|
 
-------------------------|----------------------------|
-------------------------|----------------------------|
-------------------------|----------------------------|
-------------------7--8--|-------------10--8--11--10--|
--3--4-----1----1--5--6--|-----7----7---8--6---9---8--|
--3--4-----1----1--------|-----7----7-----------------|



--------------------------|--------------------------|
--------------------------|--------------------------|
--------------------------|--------------------------|
--------------------------|--------------------------|
--5--5--5--5--5--5--5--5--|--4--4--4--4--4--4--4--4--|
--------------------------|--------------------------|
N.H------------------------------------------------

----------------------------------|--------------------------|
----------------------------------|--------------------------|
----------------------------------|--------------------------|
----------------------------------|--------------------------|
--3--3--3--3--3.5--3.5--2.5--2.5--|-----------6--6--6--------|
----------------------------------|--3--3--3-----------0--0--|
N.H-----------------------------


--------------------------|--------------------------|
--------------------------|--------------------------|
--------------------------|--------------------------|
--------------------------|--------------------------|
--5--5--5--5--5--5--5--5--|--4--4--4--4--4--4--4--4--|
--------------------------|--------------------------|
N.H------------------------------------------------

----------------------------------|--------------------------|
----------------------------------|--------------------------|
----------------------------------|--------------------------|
----------------------------------|--------------------------|
--3--3--3--3--3.5--3.5--2.5--2.5--|-----------6--6--6--------|
----------------------------------|--3--3--3-----------0--0--|
N.H-----------------------------


--------------------------|--------------------------|
--------------------------|--------------------------|
--------------------------|--------------------------|
--------------------------|--------------------------|
--5--5--5--5--5--5--5--5--|--4--4--4--4--4--4--4--4--|
--------------------------|--------------------------|
N.H------------------------------------------------

----------------------------------|--------------------------|
----------------------------------|--------------------------|
----------------------------------|--------------------------|
----------------------------------|--------------------------|
--3--3--3--3--3.5--3.5--2.5--2.5--|-----------6--6--6--------|
----------------------------------|--3--3--3-----------0--0--|
N.H-----------------------------


--------------------------|--------------------------|
--------------------------|--------------------------|
--------------------------|--------------------------|
--------------------------|--------------------------|
--5--5--5--5--5--5--5--5--|--4--4--4--4--4--4--4--4--|
--------------------------|--------------------------|
N.H------------------------------------------------

----------------------------------|--------------------------|
----------------------------------|--------------------------|
----------------------------------|--------------------------|
----------------------------------|--------------------------|
--3--3--3--3--3.5--3.5--2.5--2.5--|-----------6--6--6--------|
----------------------------------|--3--3--3-----------0--0--|
N.H-----------------------------



-------------------------|--------------------------|-------------------------|
-------------------------|--------------------------|-------------------------|
-------------------------|--------------------------|-------------------------|
-------------------------|--------------------------|-------------------------|
--0--0--0--0-------0--0--|--0--0--0--0--0--0--0--0--|-------0--0--0--0--0--0--|
--1--1--1--1-------1--1--|--1--1--1--1--1--1--1--1--|-------1--1--1--1--1--1--|
pm--------------------------------------------------------------------------

--------------------------|
--------------------------|
--------------------------|
--------------------------|
-----------6--6--6--------|
--3--3--3-----------0--0--|


-------------------------|--------------------------|-------------------------|
-------------------------|--------------------------|-------------------------|
-------------------------|--------------------------|-------------------------|
-------------------------|--------------------------|-------------------------|
--0--0--0--0-------0--0--|--0--0--0--0--0--0--0--0--|-------0--0--0--0--0--0--|
--1--1--1--1-------1--1--|--1--1--1--1--1--1--1--1--|-------1--1--1--1--1--1--|
pm--------------------------------------------------------------------------

--------------------------|
--------------------------|
--------------------------|
--------------------------|
-----------6--6--6--------|
--3--3--3-----------0--0--|


      
-------------------|-------------------|------------------------|
-------------------|-------------------|------------------------|
-------------------|-------------------|------------------------|
-------------------|-------------------|------------------------|
-------------------|-------------------|--0----------0----------|
--0----------------|-------------------|--0----------0----------|
                                        pm-          -


------------------------------|--------------------------------|
------------------------------|--------------------------------|
------------------------------|--------------------------------|
--9-9-6----------------9-9-6--|----------------12-12-9---------|
---------8-8-5----------------|--8-8-5------------------8-8-5--|
----------------9-9-6---------|---------9-9-6------------------|

------------------------------|--------------------------------|---------------------|
------------------------------|--------------------------------|---------------------|
------------------------------|--------------------------------|--13-13-10-----------|
--9-9-6----------------9-9-6--|----------------12-12-9---------|------------12-12-9--|
---------8-8-5----------------|--8-8-5------------------8-8-5--|---------------------|
----------------9-9-6---------|---------9-9-6------------------|---------------------|


Gtr I
------------------------------|--------------------------------|
------------------------------|--------------------------------|
------------------------------|--------------------------------|
--9-9-6----------------9-9-6--|----------------12-12-9---------|
---------8-8-5----------------|--8-8-5------------------8-8-5--|
----------------9-9-6---------|---------9-9-6------------------|

Gtr II
--------------------------------------|---------------------------------------|
--------------------------------------|---------------------------------------|
--------------------------------------|---------------------------------------|
--12-12-9--------------------12-12-9--|--------------------15-15-12-----------|
-----------11-11-8--------------------|--11-11-8---------------------11-11-8--|
--------------------12-12-9-----------|-----------12-12-9---------------------|


Gtr I
------------------------------|--------------------------------|
------------------------------|--------------------------------|
------------------------------|--------------------------------|
--9-9-6----------------9-9-6--|----------------12-12-9---------|
---------8-8-5----------------|--8-8-5------------------8-8-5--|
----------------9-9-6---------|---------9-9-6------------------|

Gtr II
--------------------------------------|---------------------------------------|
--------------------------------------|---------------------------------------|
--------------------------------------|---------------------------------------|
--12-12-9--------------------12-12-9--|--------------------15-15-12-----------|
-----------11-11-8--------------------|--11-11-8---------------------11-11-8--|
--------------------12-12-9-----------|-----------12-12-9---------------------|


Gtr I
---------------------|
---------------------|
--13-13-10-----------|
------------12-12-9--|
---------------------|
---------------------|

Gtr II
----------------------|
----------------------|
--16-16-13------------|
------------15-15-12--|
----------------------|
----------------------|


--------------------------------------|--------------0-----------|
--------------------------------------|--------------0-----------|
--------------------------------------|--------------------------|
--6--6--6-----------------------------|--------------------------|
-----------5--5--5--------------------|--3--4--3--0-----0--0--0--|
--------------------7--7--7--6--6--6--|--3--4--3--0-----0--0--0--|
  |--3--|  |--3--|  |--3--|  |--3--|   pm----------     -------

--------------------------------------|-------------0-----------0----|
--------------------------------------|-------------0-----------0----|
--------------------------------------|------------------------------|
--6--6--6-----------------------------|------------------------------|
-----------5--5--5--------------------|--3---4---3-----0--0--0-------|
--------------------7--7--7--6--6--6--|--3---4---3-----0--0--0-------|
  |--3--|  |--3--|  |--3--|  |--3--|   pm---------     -------


--------------------------------------|--------------0-----------|
--------------------------------------|--------------0-----------|
--------------------------------------|--------------------------|
--6--6--6-----------------------------|--------------------------|
-----------5--5--5--------------------|--3--4--3--0-----0--0--0--|
--------------------7--7--7--6--6--6--|--3--4--3--0-----0--0--0--|
  |--3--|  |--3--|  |--3--|  |--3--|   pm---------     --------

--------------------------------------|-------------0-----------|
--------------------------------------|-------------0-----------|
--------------------------------------|-------------------------|
--6--6--6-----------------------------|-------------------------|
-----------5--5--5--------------------|--3---4---3-----0--0--0--|
--------------------7--7--7--6--6--6--|--3---4---3-----0--0--0--|
  |--3--|  |--3--|  |--3--|  |--3--|   pm---------     -------


--------------0-----------|-------------0-----------|--------------0-----------|
--------------0-----------|-------------0-----------|--------------0-----------|
--------------------------|-------------------------|--------------------------|
--------------------------|-------------------------|--------------------------|
--3--4--3--0-----0--0--0--|--3---4---3-----0--0--0--|--3--4--3--0-----0--0--0--|
--3--4--3--0-----0--0--0--|--3---4---3-----0--0--0--|--3--4--3--0-----0--0--0--|
pm----------     ---------------------     ----------------------     -------



Gtr I
---------------------------|-----------------------|
---------------------------|-----------------------|
---------------------------|-----------------8--7--|
--10\--------------10--11--|-----------------------|
---8\----3------3---8---9--|--4----1------1--6--5--|
---------3------3----------|--4----1------1--------|

Gtr II
---------------------------|------------------------|
---------------------------|------------------------|
---------------------------|-----------------12--11-|
--10\--------------10--11--|------------------------|
---8\----3------3---8---9--|--4----1------1--10--9--|
---------3------3----------|--4----1------1---------|


Gtr I
---------------------------|-----------------------|
---------------------------|-----------------------|
---------------------------|-----------------8--7--|
--10\--------------10--11--|-----------------------|
---8\----3------3---8---9--|--4----1------1--6--5--|
---------3------3----------|--4----1------1--------|

Gtr II
---------------------------|------------------------|
---------------------------|------------------------|
---------------------------|-----------------12--11-|
--10\--------------10--11--|------------------------|
---8\----3------3---8---9--|--4----1------1--10--9--|
---------3------3----------|--4----1------1---------|


Gtr I
---------------------------|-----------------------|
---------------------------|-----------------------|
---------------------------|-----------------8--7--|
--10\--------------10--11--|-----------------------|
---8\----3------3---8---9--|--4----1------1--6--5--|
---------3------3----------|--4----1------1--------|

Gtr II
---------------------------|------------------------|
---------------------------|------------------------|
--10----------------11--10-|-----------------12--11-|
---------------------------|------------------------|
---8-----3------3---8---9--|--4----1------1--10--9--|
---------3------3----------|--4----1------1---------|


Gtr I
---------------------------|-----------------------|
---------------------------|-----------------------|
---------------------------|-----------------8--7--|
--10\--------------10--11--|-----------------------|
---8\----3------3---8---9--|--4----1------1--6--5--|
---------3------3----------|--4----1------1--------|

Gtr II
---------------------------|------------------------|
---------------------------|------------------------|
--10----------------11--10-|-----------------12--11-|
---------------------------|------------------------|
---8-----3------3---8---9--|--4----1------1--10--9--|
---------3------3----------|--4----1------1---------|



-------------------|
-------------------|
-------------------|
-------------------|
-------------------|
--0----------------|
comments
We did not receive enough feedback on this tab! Please rate:
print report bad tab
1 2 3 4 5
1 comment total.
0 reply
frankibo wrote on December 27 2008, 07:53 am

not right

I want to post or [tab]
guest
You may want to rate the tab now too:
select rating
Please do not post tabs as comments. Select "correction" instead!