Oops, an error
Loading. Please wait.

I Cant See The Light Tab

ver1
ver1

Whole song

Interactive

More versions @911Tabs.com
3,199 views 6 this week
1 commentread comment
1 2 3 4 5
excellent!
x 5
Autoscroll
+/-
esc
set tempo
stop
Contributor
Hey! There's an official Ultimate Guitar app which is ideal
for learning songs when you're away from computer. Get the app
WARNING: You are trying to view
                                    content from Ultimate-Guitar.com
                                    in an unauthorized application,
                                    which is prohibited.

                                    Please use an official Ultimate
                                    Guitar Tabs application for iPhone,
                                    iPad or Android to access legitimate
                                    chords, guitar, bass, and drum tabs
                                    from Ultimate-Guitar.com database.

                                    Type "ultimate guitar tabs" in Apple
                                    App Store's or Android Market's
                                    search to find the application.
ARCHITECTS - I Can't See The Light (Ruin)

DROP B TUNING - B F# B E G# C#

---------------------------------------------------------------------|
---------------------------------------------------------------------|
---------------------------------------------------------------------|
------------------4--------------------------------------------------|
-1-----------------------------------------------5----------------5--|
-1--0-0-0--1-1-1-----0-0-0--1-1-1--3-3-3--4-4-4-----0-0-0--1-1-1-----|

--------------------------|
--------------------------|
--------------------------|
-------------0-1-0--------|
-------2--5---------3--2--|
-3--6---------------------|


---------------------------------------------------------------------|
---------------------------------------------------------------------|
---------------------------------------------------------------------|
------------------4--------------------------------------------------|
-1-----------------------------------------------5----------------5--|
-1--0-0-0--1-1-1-----0-0-0--1-1-1--3-3-3--4-4-4-----0-0-0--1-1-1-----|

--------------------------|
--------------------------|
--------------------------|
-------------0-1-0--------|
-------2--5---------3--2--|
-3--6---------------------|


---------------------------------------------|
---------------------------------------------|
---------------------------------------------|
-------------0-1-0-----------------0-1-0-----|
-------2--5---------3--------2--5---------3--|
-3--6------------------3--6------------------|

-------------------------------------------------------------|
-------------------------------------------------------------|
-------------------------------------------------------------|
-------------0-1-0-----4--1--0--------------0-1-0-----4-1-0--|
-------2--5---------3-----------------2--5---------3---------|
-3--6---------------------------3--6-------------------------|


guitar 1
-------------------------------7---------7--10--|
----------------------------9---------9---------|
-----------7---------7--10--------10------------|
--------9-----9---------------------------------|
-11--8-----------11-----------------------------|
------------------------------------------------|

guitar 2
------------------------------4-------4--7--|
---------------------------6-------6--------|
-----------4---------4--7-------7-----------|
--------6-----6-----------------------------|
-8--5------------8--------------------------|
--------------------------------------------|


guitar 1
-13--10--------------------------10--7----------------------|
---------12-----------------------------9-------------------|
-------------13--10------------------------10--7------------|
---------------------12---------------------------9---------|
-------------------------14--11----------------------11--8--|
------------------------------------------------------------|

guitar 2
-10--7----------------------7--4--------------------|
--------9-------------------------6-----------------|
-----------10--7---------------------7--4-----------|
------------------9------------------------6--------|
---------------------11--8--------------------8--5--|
----------------------------------------------------|


---------------------------|
---------------------------|
---------------------------|
---------------------------|
-6--6--6--6----6--6--6--5--|
-4--4--4--4----4--4--4--3--|


---------------------------------------------------------------------|
---------------------------------------------------------------------|
---------------------------------------------------------------------|
------------------4--------------------------------------------------|
-1-----------------------------------------------5----------------5--|
-1--0-0-0--1-1-1-----0-0-0--1-1-1--3-3-3--4-4-4-----0-0-0--1-1-1-----|

--------------------------|
--------------------------|
--------------------------|
-------------0-1-0--------|
-------2--5---------3--2--|
-3--6---------------------|


---------------------------------------------------------------------|
---------------------------------------------------------------------|
---------------------------------------------------------------------|
------------------4--------------------------------------------------|
-1-----------------------------------------------5----------------5--|
-1--0-0-0--1-1-1-----0-0-0--1-1-1--3-3-3--4-4-4-----0-0-0--1-1-1-----|

--------------------------|
--------------------------|
--------------------------|
-------------0-1-0--------|
-------2--5---------3--2--|
-3--6---------------------|


--------------------------------------------------|
--------------------------------------------------|
--------------------------------------------------|
--------------------------------------------------|
-3---3--3--3--------------------------------------|
-1---1--1--1--0--0--0--0--0--0--0--0--0--0--0--0--|

----------------------------------|
----------------------------------|
----------------------------------|
----------------------------------|
-3---3--3------6------5-------3*--|
-1---1--1--0-0----0-0-----0-0-----|


--------------------------------------------------|
--------------------------------------------------|
--------------------------------------------------|
--------------------------------------------------|
-3---3--3--3--------------------------------------|
-1---1--1--1--0--0--0--0--0--0--0--0--0--0--0--0--|

---------------------------------------|
---------------------------------------|
---------------------------------------|
---------------------------------------|
-3---3--3------6------5-------3--6--5--|
-1---1--1--0-0----0-0-----0-0----------|


---------------------------------------|
---------------------------------------|
---------------------------------------|
---------------------------------------|
---------------------------------------|
-0--0--0--0--0--0--0--0--0--0--0-0-0---|
pm-------------------------------------|

---------------------------------------------------|
---------------------------------------------------|
---------------------------------------------------|
---------------------------------------------------|
-------------------------6------5------3--6--5-----|
-0--0--0--0--0--0--0--0----0-0----0-0--------------|
pm-------------------------------------------------|


---------------------------------------|
---------------------------------------|
---------------------------------------|
---------------------------------------|
---------------------------------------|
-0--0--0--0--0--0--0--0--0--0--0-0-0---|
pm-------------------------------------|

---------------------------------------------------|
---------------------------------------------------|
---------------------------------------------------|
---------------------------------------------------|
-------------------------6------5------3--6--5-----|
-0--0--0--0--0--0--0--0----0-0----0-0--------------|
pm-------------------------------------------------|


---------------------------------------------------------------------------|
---------------------------------------------------------------------------|
---------------------------------------------------------------------------|
---------------------------------------------------------------------------|
---------------------------------------------------6------5------3--6--5---|
-0---0-0-0--0-0-0--0-0-0--0-0-0--0--0--0--0--0--0----0-0----0-0------------|
pm-------------------------------------------------------------------------|

----------------------------------------------------------------------|
----------------------------------------------------------------------|
----------------------------------------------------------------------|
----------------------------------------------------------------------|
---------------------------------------------------6------5------3*---|
-0---0-0-0--0-0-0--0-0-0--0-0-0--0--0--0--0--0--0----0-0----0-0-------|
pm--------------------------------------------------------------------|


--------------------------------------------------|
--------------------------------------------------|
--------------------------------------------------|
-3---3--3--3--------------------------------------|
-1---1--1--1--0--0--0--0--0--0--0--0--0--0--0--0--|

----------------------------------|
----------------------------------|
----------------------------------|
----------------------------------|
-3---3--3------6------5-------3*--|
-1---1--1--0-0----0-0-----0-0-----|


--------------------------------------------------|
--------------------------------------------------|
--------------------------------------------------|
-3---3--3--3--------------------------------------|
-1---1--1--1--0--0--0--0--0--0--0--0--0--0--0--0--|

----------------------------------|
----------------------------------|
----------------------------------|
----------------------------------|
-3---3--3------6------5-------3*--|
-1---1--1--0-0----0-0-----0-0-----|


-----------------------------|
-----------------------------|
-----------------------------|
-----------------------------|
-----3-----5-----8---9---12--|
-0-0---0-0---0-0---0---0-----|

----------------10-14-10----------------------------16-20-16----------------|
-------------12----------12----------------------18----------18-------------|
----------11----------------11----------------17----------------17----------|
-------12----------------------12----------18----------------------18-------|
-11-14----------------------------14-17-20----------------------------20----|
-------------------------------------------------------------------------\\-|


------------------------------------------------------------------|
------------------------------------------------------------------|
------------------------------------------------------------------|
------------------------------------------------------------------|
---------------------------------9-9-9-9-9-9-9-9-8-8-8-8-8-8-8-8--|
-4-4-4-4-4-4-4-4-4-4-4-4-4-4-4-4----------------------------------|

------------------------------------------------------------------|
------------------------------------------------------------------|
------------------------------------------------------------------|
------------------------------------------------------------------|
------------------------------------------------------------------|
------------------------------------------------------------------|
---------------------------------8-8-8-8-8-8-8-8-5-5-5-5-5-5-5-5--|
-3-3-3-3-3-3-3-3-3-3-3-3-3-3-3-3----------------------------------|


----0-------------------0-----------|
------0-------------------0---------|
--------5-------------------5-------|
----------7-------------------7-----|
------------------------------------|
-7-----------7--7----7-----------7--|


guitar 1
------------------------------------------------------------------|
------------------------------------------------------------------|
------------------------------------------------------------------|
---------------------------------8-8-8-8-8-8-8-8-7-7-7-7-7-7-7-7--|
------------------------------------------------------------------|
-4-4-4-4-4-4-4-4-4-4-4-4-4-4-4-4----------------------------------|

guitar 2
------------------------------------------------------------------|
------------------------------------------------------------------|
------------------------------------------------------------------|
------------------------------------------------------------------|
---------------------------------9-9-9-9-9-9-9-9-8-8-8-8-8-8-8-8--|
-4-4-4-4-4-4-4-4-4-4-4-4-4-4-4-4----------------------------------|


guitar 1
------------------------------------------------------------------|
------------------------------------------------------------------|
------------------------------------------------------------------|
------------------------------------------------------------------|
------------------------------------------------------------------|
---------------------------------7-7-7-7-7-7-7-7-4-4-4-4-4-4-4-4--|
------------------------------------------------------------------|
-3-3-3-3-3-3-3-3-3-3-3-3-3-3-3-3----------------------------------|

guitar 2
------------------------------------------------------------------|
------------------------------------------------------------------|
------------------------------------------------------------------|
------------------------------------------------------------------|
------------------------------------------------------------------|
------------------------------------------------------------------|
---------------------------------8-8-8-8-8-8-8-8-5-5-5-5-5-5-5-5--|
-3-3-3-3-3-3-3-3-3-3-3-3-3-3-3-3----------------------------------|


----0-------------------0------------------0-------------------0------------|
------0-------------------0------------------0-------------------0----------|
--------5-------------------5------------------5-------------------5--------|
----------7-------------------7------------------5-------------------5-------|
----------------------------------------------------------------------------|
-7-----------7--7----7-----------7--7----6-----------6--6----6-----------6--|


---------------------------------------------|
---------------------------------------------|
---------------------------------------------|
---------------------------------------------|
-0----0-0-0-0--0--0-----0----0-0-0-0--0--0---|
-0----0-0-0-0--0--0-----0----0-0-0-0--0--0---|
pm-------------------------------------------|


---------------------------------------------------------------------|
---------------------------------------------------------------------|
---------------------------------------------------------------------|
------------------4--------------------------------------------------|
-1-----------------------------------------------5----------------5--|
-1--0-0-0--1-1-1-----0-0-0--1-1-1--3-3-3--4-4-4-----0-0-0--1-1-1-----|

--------------------------|
--------------------------|
--------------------------|
-------------0-1-0--------|
-------2--5---------3--2--|
-3--6---------------------|


---------------------------------------------------------------------|
---------------------------------------------------------------------|
---------------------------------------------------------------------|
------------------4--------------------------------------------------|
-1-----------------------------------------------5----------------5--|
-1--0-0-0--1-1-1-----0-0-0--1-1-1--3-3-3--4-4-4-----0-0-0--1-1-1-----|

--------------------------|
--------------------------|
--------------------------|
-------------0-1-0--------|
-------2--5---------3--2--|
-3--6---------------------|


---------------------------------------------|
---------------------------------------------|
---------------------------------------------|
-------------0-1-0-----------------0-1-0-----|
-------2--5---------3--------2--5---------3--|
-3--6------------------3--6------------------|

-------------------------------------------------------------|
-------------------------------------------------------------|
-------------------------------------------------------------|
-------------0-1-0-----4--1--0--------------0-1-0-----4-1-0--|
-------2--5---------3-----------------2--5---------3---------|
-3--6---------------------------3--6-------------------------|


guitar 1
-------------------------------7---------7--10--|
----------------------------9---------9---------|
-----------7---------7--10--------10------------|
--------9-----9---------------------------------|
-11--8-----------11-----------------------------|
------------------------------------------------|

guitar 2
------------------------------4-------4--7--|
---------------------------6-------6--------|
-----------4---------4--7-------7-----------|
--------6-----6-----------------------------|
-8--5------------8--------------------------|
--------------------------------------------|


guitar 1
-13--10--------------------------10--7----------------------|
---------12-----------------------------9-------------------|
-------------13--10------------------------10--7------------|
---------------------12---------------------------9---------|
-------------------------14--11----------------------11--8--|
------------------------------------------------------------|

guitar 2
-10--7----------------------7--4--------------------|
--------9-------------------------6-----------------|
-----------10--7---------------------7--4-----------|
------------------9------------------------6--------|
---------------------11--8--------------------8--5--|
----------------------------------------------------|


----0-------------------0-----------------0-------------------0--------|
------0-------------------0-----------------0-------------------0------|
--------5-------------------5-----------------5-------------------5----|
----------7-------------------7-----------------5-------------------5--|
-----------------------------------------------------------------------|
-7-----------7--7----7-----------7--6--3-----------3--3----3-----------|

----0-------------------0-----------------0-------------------0--------|
------0-------------------0-----------------0-------------------0------|
--------5-------------------5-----------------5-------------------5----|
----------7-------------------7-----------------5-------------------5--|
-----------------------------------------------------------------------|
-7-----------7--7----7-----------7--6--3-----------3--3----3-----------|

----0-------------------0-----------------0-------------------0--------|
------0-------------------0-----------------0-------------------0------|
--------5-------------------5-----------------5-------------------5----|
----------7-------------------7-----------------5-------------------5--|
-----------------------------------------------------------------------|
-7-----------7--7----7-----------7--6--3-----------3--3----3-----------|


----0-------------------0-----------------0-------------------0--------|
------0-------------------0-----------------0-------------------0------|
--------5-------------------5-----------------5-------------------5----|
----------7-------------------7-----------------5-------------------5--|
-----------------------------------------------------------------------|
-7-------------------------------7--6--3-----------3--3----3-----------|


----0-------------------0-----------------0-------------------0--------|
------0-------------------0-----------------0-------------------0------|
--------5-------------------5-----------------5-------------------5----|
----------7-------------------7-----------------5-------------------5--|
-----------------------------------------------------------------------|
-7-----------7--7----7-----------7--6--3-----------3--3----3-----------|

----0-------------------0-----------------0-------------------0--------|
------0-------------------0-----------------0-------------------0------|
--------5-------------------5-----------------2-------------------2----|
----------7-------------------7-----------------2-------------------2--|
-----------------------------------------------------------------------|
-7-----------7--7----7-----------6--3--2-----------2--2----2-----------|


----------0---------------------0----------------|
--------------3---3-----------------3---3--------|
------------2---2-----------------2---2----------|
-------------------------------------------------|
-------------------------------------------------|
-2--3--0-------------0--0----0-------------0--0--|


guitar 1
-------------------------------------------|
-------------------------------------------|
-5tr---------------------------------------|
-------------------------------------------|
-------------------------------------------|
-------------------------------------------|

guitar 2
-------------------------------------------|
-------------------------------------------|
-------------------------------------------|
-------------------------------------------|
-3----3-3-3-3--3--3----3----3-3-3-3--3--3--|
-2----2-2-2-2--2--2----2----2-2-2-2--2--2--|


guitar 1
-------------------------------------------|
-------------------------------------------|
-7tr---------------------------------9tr---|
-------------------------------------------|
-------------------------------------------|
-------------------------------------------|

guitar 2
-------------------------------------------|
-------------------------------------------|
-------------------------------------------|
-------------------------------------------|
-5----5-5-5-5--5--5----5----5-5-5-5--5--5--|
-4----4-4-4-4--4--4----4----4-4-4-4--4--4--|


----0-------------------0-----------------0-------------------0--------|
------0-------------------0-----------------0-------------------0------|
--------5-------------------5-----------------5-------------------5----|
----------7-------------------7-----------------5-------------------5--|
-----------------------------------------------------------------------|
-7-----------7--7----7-----------7--6--3-----------3--3----3-----------|

----0-------------------0-----------------0-------------------0--------|
------0-------------------0-----------------0-------------------0------|
--------5-------------------5-----------------5-------------------5----|
----------7-------------------7-----------------5-------------------5--|
-----------------------------------------------------------------------|
-7-----------7--7----7-----------7--6--3-----------3--3----3-----------||

----0-------------------0-----------------0-------------------0--------|
------0-------------------0-----------------0-------------------0------|
--------5-------------------5-----------------2-------------------2----|
----------7-------------------7-----------------2-------------------2--|
-----------------------------------------------------------------------|
-7-----------7--7----7-----------6--3--2-----------2--2----2-----------|


----------0---------------------0----------------|
--------------3---3-----------------3---3--------|
------------2---2-----------------2---2----------|
-------------------------------------------------|
-------------------------------------------------|
-2--3--0-------------0--0----0-------------0--0--|


guitar 1
--------------------------------------------|
--------------------------------------------|
-5tr----------------------------------------|
--------------------------------------------|
--------------------------------------------|
--------------------------------------------|

guitar 2
-------------------------------------------|
-------------------------------------------|
-------------------------------------------|
-------------------------------------------|
-3----3-3-3-3--3--3----3----3-3-3-3--3--3--|
-2----2-2-2-2--2--2----2----2-2-2-2--2--2--|


guitar 1
-------------------------------------------|
-------------------------------------------|
-7tr---------------------------------9tr---|
-------------------------------------------|
-------------------------------------------|
-------------------------------------------|

guitar 2
-------------------------------------------|
-------------------------------------------|
-------------------------------------------|
-------------------------------------------|
-5----5-5-5-5--5--5----5----5-5-5-5--5--5--|
-4----4-4-4-4--4--4----4----4-4-4-4--4--4--|
comments
print report bad tab
1 comment total.
0 reply
cassieskylines wrote on June 7 2012, 01:00 pm

Thanks for tabbing this :)

I want to post or [tab]
guest
You may want to rate the tab now too:
select rating
Please do not post tabs as comments. Select "correction" instead!