Oops, an error
Loading. Please wait.

In The Desert Tab

ver1
ver1

Solo

Whole song

Interactive

More versions @911Tabs.com
4,738 views 1 this week
2 commentsread comments
1 2 3 4 5
worth learning
x 2
Autoscroll
+/-
esc
set tempo
stop
Difficulty
advanced
WARNING: You are trying to view
                                    content from Ultimate-Guitar.com
                                    in an unauthorized application,
                                    which is prohibited.

                                    Please use an official Ultimate
                                    Guitar Tabs application for iPhone,
                                    iPad or Android to access legitimate
                                    chords, guitar, bass, and drum tabs
                                    from Ultimate-Guitar.com database.

                                    Type "ultimate guitar tabs" in Apple
                                    App Store's or Android Market's
                                    search to find the application.
So this is my attempt at this intense song, hopefully some people will correct the 
mistakes that lie within. Enjoy.

=======================================================================
         Title : In The Desert
        Artist : Architects
         Album : Nightmares
=======================================================================

Guitar Tuning: C G C F A D

0:00 - 0:09
D|------------------|
A|------------------|
F|------------------|
C|------------------|
G|------------------|
C|-F-E-E-D--B-A-C-K-|


0:09 - 0:24
D|------------------------------|
A|----------4------------4------|
F|----------7------------7------|    X5
C|------------------------------|
G|------------------------------|
C|1-0-4-1-0---0-1-0-4-1-0-------|


0:25 - 0:26
D|-----------|
A|-----------|
F|-----------|
C|-----------|
G|-----------|
C|-0-0-0-0-0-|


0:26 - 0:28
D|----------------------------------|
A|----------4-----------------------|
F|----------7-----------------------|
C|----------------------------------|
G|----------------------------------|
C|1-0-4-1-0---0-0-0-0-0---0-0-0-0-0-|


0:29 - 0:33                         TP {++++++++++++++}
D|--------------------------------------------------------|
A|--4-----------4----------4------------------------------|
F|--7-----------7----------7------------------------------|
C|--------------------------------------------------------|
G|----0-1-4-1-0---0-1-4-1----0-1-4-1-0--------------------|
C|----0-1-4-1-0---0-1-4-1----0-1-4-1-0--4-3-1-3-1-0-1-0---|


0:33 - 0:40
D|---------------|
A|--4------------|
F|--7------------| X5
C|---------------|
G|----0-1-4-1-0--|
C|----0-1-4-1-0--|


0:40 - 0:44
TP{++++++++++++++++++++++++++++++++++++++++++++++++}
D|--------------------------------------------------|
A|--------------------------------------------------|
F|--------------------------------------------------|
C|----------------------------------5-4-2-4-2-0-2-0-|
G|------------------4-3-1-3-1-0-1-0-----------------|
C|-4-3-1-3-1-0-1-0----------------------------------|


0:44 - 0:46
D|--------------------|
A|--------------------|
F|--------------------| X2
C|-3*-----------------|
G|--------------------|
C|----4-3-1-3-1-0-1-0-|
PM    . . . . . . . .


0:47 - 0:48
D|---------------------------------|
A|---------------------------------|
F|---------------------------------|
C|-3*----------3*------------------|
G|---------------------------------|
C|----4-3-1-3-----4-3-1-3-1-0-1-0--|
PM    . . . .     . . . . . . . .


0:48 - 0:49
D|---------------------|
A|---------------------|
F|---------------------|
C|------------------4*-|
G|--4-3-1-3-1-0-1-0----|
C|---------------------|
PM  . . . . . . . .


0:49 - 0:50
D|---------------------------------|
A|---------------------------------|
F|---------------------------------|
C|-3*----------3*------------------|
G|---------------------------------|
C|----4-3-1-3-----4-3-1-3-1-0-1-0--|
PM    . . . .     . . . . . . . .


0:51 - 0:53
D|----------------------------------------|
A|----------------------------------------|
F|----------------------------------------|
C|------------------4*-----------------4*-|
G|--4-3-1-3-1-0-1-0----4-3-1-3-1-0-1-0----|
C|----------------------------------------|
PM  . . . . . . . .    . . . . . . . .


0:53 - 0:55
D|-------------------------------------|
A|-------------------------------------|
F|-------------------------------------|
C|------------------5*-----------------|
G|--5-4-2-4-2-0-2-0----5-4-2-4-2-0-2-0-|
C|-------------------------------------|
PM  . . . . . . . .    . . . . . . . .


0:55 - 0:57
D|------------------------------|
A|----------4------------4------|
F|----------7------------7------|
C|------------------------------|
G|------------------------------|
C|1-0-4-1-0---0-1-0-4-1-0-------|


0:57 - 0:58
D|-----------|
A|-----------|
F|-----------|
C|-----------|
G|-----------|
C|-0-0-0-0-0-|


0:59 - 1:11
D|------------------------------|
A|----------4------------4------|
F|----------7------------7------|   X4
C|------------------------------|
G|------------------------------|
C|1-0-4-1-0---0-1-0-4-1-0-------|


1:11 - 1:12
D|-----------|
A|-----------|
F|-----------|
C|-----------|
G|-----------|
C|-0-0-0-0-0-|


1:12 - 1:14
D|-------------------------------------|
A|-11-11-11-11-11-11-11-11-------------|
F|-14-14-14-14-14-14-14-14-------------|
C|-------------------------------------|
G|-------------------------------------|
C|-------------------------0-0-0-0-0-0-|


1:14 - 1:16
D|-------------------------------------|
A|-11-11-11-11-11-11-11-11-------------|
F|-14-14-14-14-14-14-14-14-------------|
C|-------------------------------------|
G|-------------------------------------|
C|-------------------------0-0-0-0-0-0-|


1:17 - 1:19
D|-----------------------------------------|
A|-----------11----11----11----------------|
F|-----------14----14----14----------------|
C|-----------------------------------------|
G|-----------------------------------------|
C|-0-0-0-0-0-------------------0-0-0-0-0-0-|


1:20 - 1:21
D|-----------------------------|
A|-11----11----11--------------|
F|-14----14----14--------------|
C|-----------------------------|
G|-----------------------------|
C|-----------------0-0-0-0-0-0-|


1:21 - 1:22
D|--------------------|
A|--------------------|
F|--------------------|
C|--------------------|
G|--------------------|
C|-J-U-S-T--D-R-U-M-S-|


1:23 - 1:26
D|-----------------------------|
A|-11----11----11--------------|
F|-14----14----14--------------|  X2
C|-----------------------------|
G|-----------------------------|
C|-----------------0-0-0-0-0-0-|


1:27
D|-------------|
A|-------------|
F|-------------|
C|-------------|
G|-------------|
C|-0-0-0-0-0-0-|


1:28 - 1:31
D|----------------------------------------------|
A|-11----11----11---11----11----11--------------|
F|-14----14----14---14----14----14--------------|
C|------------------15----15----15--------------|
G|----------------------------------------------|
C|----------------------------------0-0-0-0-0-0-|


1:31 - 1:34
D|------------------------------|
A|-11----11----11--------4------|
F|-14----14----14--------7------|
C|------------------------------|
G|------------------------------|
C|-----------------0-0-0----0-0-|


1:34 - 1:38
D|-----------------------------|
A|-11----11----11--------------|
F|-14----14----14--------------|  X2
C|-----------------------------|
G|-----------------------------|
C|-----------------0-0-0-0-0-0-|


1:38
D|-------------|
A|-------------|
F|-------------|
C|-------------|
G|-------------|
C|-0-0-0-0-0-0-|


1:39 - 1:42
D|----------------------------------------------|
A|-11----11----11---11----11----11--------------|
F|-14----14----14---14----14----14--------------|
C|------------------15----15----15--------------|
G|----------------------------------------------|
C|----------------------------------0-0-0-0-0-0-|


1:43 - 1:45
D|------------------------------|
A|-11----11----11--------4------|
F|-14----14----14--------7------|
C|------------------------------|
G|------------------------------|
C|-----------------0-0-0----0-0-|


1:46 - 1:47
D|--------------------|
A|--------------------|
F|--------------------| X2
C|-3*-----------------|
G|--------------------|
C|----4-3-1-3-1-0-1-0-|
PM    . . . . . . . .


1:47 - 1:48
D|---------------------------------|
A|---------------------------------|
F|---------------------------------|
C|-3*----------3*------------------|
G|---------------------------------|
C|----4-3-1-3-----4-3-1-3-1-0-1-0--|
PM    . . . .     . . . . . . . .


1:49 - 1:50
D|---------------------|
A|---------------------|
F|---------------------|
C|------------------4*-|
G|--4-3-1-3-1-0-1-0----|
C|---------------------|
PM  . . . . . . . .


1:50 - 1:52
D|---------------------------------|
A|---------------------------------|
F|---------------------------------|
C|-3*----------3*------------------|
G|---------------------------------|
C|----4-3-1-3-----4-3-1-3-1-0-1-0--|
PM    . . . .     . . . . . . . .


1:53 - 1:55
D|----------------------------------------|
A|----------------------------------------|
F|----------------------------------------|
C|------------------4*-----------------4*-|
G|--4-3-1-3-1-0-1-0----4-3-1-3-1-0-1-0----|
C|----------------------------------------|
PM  . . . . . . . .    . . . . . . . .


1:55 - 1:57
D|-------------------------------------|
A|-------------------------------------|
F|-------------------------------------|
C|--5-4-2-4-2-0-2-0-5*-5-4-2-4---------|
G|-----------------------------4-3-1-3-|
C|-------------------------------------|
PM  . . . . . . . .    . . . . . . . .


Solo: 1:57 - 2:19  Tremelo Picking All Through Solo
D|------------------------------------------------|
A|------------------------------------------------|
F|----9--9-----11-11--9-9------11-11--9-9---------|
C|---------9--9------------9-9-------------9-9----|
G|------------------------------------------------|
C|------------------------------------------------|

D|--------------------------------------------------------|
A|--------------------------------------------------------|
F|----9-9------11-11--9-9------11-11--9-9-------9-9-------|
C|---------9-9-------------9-9-------------9-9-------9-9--|
G|--------------------------------------------------------|
C|--------------------------------------------------------|

D|------------------------------------------------|
A|------------------------------------------------|
F|---------12-12--9-9------12-12--9-9-------9-9---|
C|----10-10-----------10-10-----------10-10-------|
G|------------------------------------------------|
C|------------------------------------------------|

D|--------------------------------------------------------------|
A|--------------------------------------------------------------|
F|---------12-12--9-9------12-12--9-9-------9-9-------9-9-------|
C|----10-10-----------10-10-----------10-10-----10-10-----10-10-|
G|--------------------------------------------------------------|
C|--------------------------------------------------------------|

D|------------------------------------------------|
A|------------------------------------------------|
F|---------------12-12----------12-12-------------|
C|-----------9-9------------9-9------------9-9----|
G|-----10-10----------10-10----------10-10--------|
C|------------------------------------------------|

D|-------------------------------------------------------------|
A|-------------------------------------------------------------|
F|---------------12-12----------12-12--------------------------|
C|-----------9-9------------9-9------------9-9-------9-9-------|
G|-----10-10----------10-10----------10-10-----10-10-----10-10-|
C|-------------------------------------------------------------|

D|------------------------------------------------|
A|------------------------------------------------|
F|---------------11-11----------11-11-------------|
C|-----------9-9-----------11-11-----------9--9---|
G|------9-9-----------9--9------------9--9--------|
C|------------------------------------------------|

D|-------------------------------------------------------------|
A|-------------------------------------------------------------|
F|---------------11-11----------11-11--------------------------|
C|-----------9--9-----------9--9-----------9--9------9--9------|
G|------9--9-----------9--9-----------9--9------9--9------9--9-|
C|-------------------------------------------------------------|

D|------------------------------------------------|
A|------------------------------------------------|
F|----9--9-----11-11--9--9-----11-11--9--9--------|
C|---------9--9------------9--9------------9--9---|
G|------------------------------------------------|
C|------------------------------------------------|

D|--------------------------------------------------------|
A|--------------------------------------------------------|
F|----9--9-----11-11--9--9-----11-11--9--9------9--9------|
C|---------9--9------------9--9------------9--9------9--9-|
G|--------------------------------------------------------|
C|--------------------------------------------------------|

D|------------------------------------------------|
A|------------------------------------------------|
F|---------12-12--9-9------12-12--9-9-------9-9---|
C|----10-10-----------10-10-----------10-10-------|
G|------------------------------------------------|
C|------------------------------------------------|

D|--------------------------------------------------------------|
A|--------------------------------------------------------------|
F|---------12-12--9-9------12-12--9-9-------9-9-------9-9-------|
C|----10-10-----------10-10-----------10-10-----10-10-----10-10-|
G|--------------------------------------------------------------|
C|--------------------------------------------------------------|

D|-----------------------------------------------|
A|-----------------------------------------------|
F|---------------12-12---------12-12-------------|
C|----------9--9-----------9-9-----------9-9-----|
G|-----10-10----------10-10---------10-10--------|
C|-----------------------------------------------|

D|-------------------------------------------------------------|
A|-------------------------------------------------------------|
F|---------------12-12----------12-12--------------------------|
C|----------9--9-----------9--9-----------9--9------9--9-------|
G|-----10-10----------10-10----------10-10-----10-10-----10-10-|
C|-------------------------------------------------------------|


2:19 - 2:22
D|------------------------|
A|------------------------|
F|---11-11-11-11-11-11-11-|
C|---9--9--9--9--9--9--9--|
G|---9--9--9--9--9--9--9--|
C|------------------------|


2:23 - 2:42
D|------------10------------10-----------------------|
A|---10-----10-----10-----10-------10----------------|
F|-12-----12-----12-----12-------12--12~-9-9~-8~-6~--|  X2
C|---------------------------------------------------|
G|---------------------------------------------------|
C|---------------------------------------------------|


2:43 - 2:59
D|-----------------|
A|-----------------|
F|-----------------|  X3
C|-----8~--9~--11~-|
G|-6~--------------|
C|-----------------|


3:00 - 3:05
D|------------------|
A|------------------|
F|------------------|
C|-----8~--13~--15~-|
G|-6~---------------|
C|------------------|

				               ______
3:05 - 3:29					    |
D|----------------------------------------------|   |
A|----------------------------------------------|   |
F|----------------------------------------------|   |
C|-99999999-1616161616161616-99999999-14~~-13~~-|   |
G|----------------------------------------------|   |
C|----------------------------------------------|   |
						    |       X2
 						    |
D|----------------------------|                    -- |
A|----------------------------|                    -- |
F|----------------------------|                    -- |
C|-99999999-88888888-66666666-|                    -- |
G|----------------------------|                    -- |
C|----------------------------|               ------- |
           					    |
					       ______


3:29 - END
D|------------------------------------|
A|------------------------------------|
F|------------------------------------|    X2
C|-9~~/16~~/9~~/14~~/13~~/9~~/8~~/6~~-|
G|------------------------------------|
C|------------------------------------|

 h  = hammer-on
 p  = pull-off
 /  = slide up/down
<5> = art. harmonic
 ~  = vibrato
 tr = trill
 TP = trem. picking
 PM = palm muting
comments
We did not receive enough feedback on this tab! Please rate:
print report bad tab
1 2 3 4 5
2 comments total.
0 reply
lunatic_666 wrote on August 9 2007, 01:34 am

THANK YOU!
I've been looking around for a tab of this song!

0 reply
m3tz wrote on November 12 2007, 12:49 pm

IMO not very accurate

I want to post or [tab]
guest
You may want to rate the tab now too:
select rating
Please do not post tabs as comments. Select "correction" instead!