Oops, an error
Loading. Please wait.

The Darkest Tomb Tab

ver1
ver1

Whole song

Interactive

More versions @911Tabs.com
3,503 views 1 this week
no commentswrite comment
1 2 3 4 5
excellent!
x 2
Autoscroll
+/-
esc
set tempo
stop
Contributor
Hey! There's an official Ultimate Guitar app which is ideal
for learning songs when you're away from computer. Get the app
WARNING: You are trying to view
                                    content from Ultimate-Guitar.com
                                    in an unauthorized application,
                                    which is prohibited.

                                    Please use an official Ultimate
                                    Guitar Tabs application for iPhone,
                                    iPad or Android to access legitimate
                                    chords, guitar, bass, and drum tabs
                                    from Ultimate-Guitar.com database.

                                    Type "ultimate guitar tabs" in Apple
                                    App Store's or Android Market's
                                    search to find the application.
The first part of this tab is the right lead guitar.  Halfway down is the second guitar,
at the bottom is a short rhythm fill that occurs between 2:13 - 2:35.  i find the tab
be pretty accurate, but note placement, such as if the note is played on the a string or 
is still questionable for some parts.
I've tried to find helpful live videos, but there arent a ton out there.  If anyone
of any clear live performances of this song,
email me at     jjres.28remy28@gmail.com         or aim:  ithrowmadhammers

This is a direct export from the Guitar Pro version on this site.

Enjoy.

                                 The Darkest Tomb


                                                                      Nightmares
Right Lead Guitar
          PM PM     PM PM         PM PM        PM PM     PM PM
       E  S  S   E  S  S   E   E  S  S      E  S  S   E  S  S
D||-------------------------------------|----------------------|
A||-------------------------------------|----------------------|
F||*--10--------10--------10--10--------|--10--------10--------|
C||*---9---------9---------9---9--------|---9---------9--------|
G||----8---------8---------8---8--------|---8---------8--------|
C||-------0--0------0--0----------0--0--|------0--0------0--0--|


      PM PM     PM PM         PM PM        PM PM     PM PM         PM PM
   E  S  S   E  S  S   E   E  S  S      E  S  S   E  S  S   E   E  S  S
------------------------------------|------------------------------------|
------------------------------------|------------------------------------|
--10--------10--------10--10--------|--10--------10--------10--10--------|
---9---------9---------9---9--------|---9---------9---------9---9--------|
---8---------8---------8---8--------|---8---------8---------8---8--------|
------0--0------0--0----------0--0--|------0--0------0--0----------0--0--|


      PM PM     PM PM        PM PM     PM PM         PM PM
   E  S  S   E  S  S      E  S  S   E  S  S   E   E  S  S   S  S  S  S
----------------------|--------------------------------------------------||
--12--------12--------|--12--------12--------12--12--------15-15-15-15---||
--10--------10--------|--10--------10--------10--10--------18-18-18-18-*-||
---9---------9--------|---9---------9---------9---9--------------------*-||
---8---------8--------|---8---------8---------8---8----------------------||
------0--0------0--0--|------0--0------0--0----------0--0----------------||


      PM  PM                PM  PM                        PM  PM
  E.  E.  E  S S S S    E.  E.  E  S S S S S S S S    E.  E.  E  S S S S
---------------------|-----------------------------|---------------------|
---------------------|-----------------------------|---------------------|
---------------------|-----------------------------|---------------------|
---------------------|-----------------------------|---------------------|
--5---4---0--6-6-6-5-|--5---4---0--6-6-6-6-5-5-5-5-|--5---4---0--6-6-6-5-|
--4---3---0----------|--4---3---0------------------|--4---3---0----------|


      PM  PM
  E.  E.  E  S S S S S S S S S S S S S S S S     E.  E.  E  T E  T E.  E
---------------------------------------------|----------------------------|
---------------------------------------------|----------------------------|
---------------------------------------------|----------------------------|
---------------------------------------------|----------------------------|
--5---4---0--6-6-6-6-5-5-5-5-9-9-9-9-8-8-8-8-|--/5----------x-2--L--------|
--4---3---0----------------------------------|-------7---6---------3---2--|


  T          T                 PM  PM                PM  PM
  |---3---|  |---3---|
  E   E   E  E   E   E     E.  E.  E  S S S S    E.  E.  E  S S S S S S S S
--9p--0h--6-------------|---------------------|-----------------------------|
-------------9p--0h--6--|---------------------|-----------------------------|
------------------------|---------------------|-----------------------------|
------------------------|---------------------|-----------------------------|
------------------------|--5---4---0--9-9-9-9-|--5---4---0--9-9-9-9-8-8-8-8-|
------------------------|--4---3---0----------|--4---3---0------------------|


      PM  PM                PM  PM
  E.  E.  E  S S S S    E.  E.  E  S S S S
---------------------|---------------------|
---------------------|---------------------|
---------------------|---------------------|
---------------------|---------------------|
--5---4---0--9-9-9-9-|--5---4---0--9-9-9-9-|
--4---3---0----------|--4---3---0----------|


      PM  PM
  E.  E.  E  S S S S S S S S  S  S  S  S  S  S  S  S
-----------------------------------------------------|
-----------------------------------------------------|
-----------------------------------------------------|
-----------------------------------------------------|
--5---4---0--9-9-9-9-8-8-8-8-12-12-12-12-11-11-11-11-|
--4---3---0------------------------------------------|


  E.   E.  E  T E  T E.  E
----------------------------|
----------------------------|
----------------------------|
----------------------------|
--8-----------x-5--L--------|
------10---9---------7---6--|


  T          T           T           T          T
  |---3---|  |---3---|   |---3---|   |---3---|  |---3---|
  E   E   E  E   E   E   E   E   E   E   E   E  E   E   E
--9p--0h--6-------------11p--0h--8-------------------------|
-------------9p--0h--6--------------11p--0h--8-------------|
------------------------------------------------9p--0h--6--|
-----------------------------------------------------------|
-----------------------------------------------------------|
-----------------------------------------------------------|


               PM                     PM PM PM PM PM
  H.           E  E     E   E  E   E  S  S  S  S  E
---------------------|-------------------------------|
---------------------|-------------------------------|
---------------------|-------------------------------|
--0------------0-----|-------------------------------|
--0------------0-----|-------------------------------|
--0------------0-----|--3p--0--3p--0--1--1--1--1--0--|


                PM PM PM PM PM                  PM PM PM PM
  E   E  E   E  S  S  S  S  E     E   E  E   E  S  S  S  S  E
-------------------------------|-------------------------------|
-------------------------------|-------------------------------|
-------------------------------|-------------------------------|
-------------------------------|-------------------------------|
-------------------------------|-------------------------------|
--3p--0--3p--0--1--1--1--1--0--|--3p--0--3p--0--1--1--1--1--0--|


                PM PM PM PM PM
  E   E  E   E  S  S  S  S  E     E  S S E.    S S S    E  S S E.    S S S
-------------------------------|---------------------|---------------------|
-------------------------------|--4--x-x-4S---10-x-x-|--4--x-x-4S---10-x-x-|
-------------------------------|--7--x-x-7S---13-x-x-|--7--x-x-7S---13-x-x-|
-------------------------------|---------------------|---------------------|
-------------------------------|---------------------|---------------------|
--3p--0--3p--0--1--1--1--1--0--|---------------------|---------------------|


                                                           PM PM PM PM PM
  E  S S E.    S S S     E  S S  H           E   E  E   E  S  S  S  S  E
---------------------|--------------------|-------------------------------|
--4--x-x-4S---10-x-x-|--16--x-x-16--------|-------------------------------|
--7--x-x-7S---13-x-x-|--19--x-x-19--------|-------------------------------|
---------------------|--------------------|-------------------------------|
---------------------|--------------------|-------------------------------|
---------------------|--------------------|--3p--0--3p--0--1--1--1--1--0--|


                PM PM PM PM PM                  PM PM PM PM PM
  E   E  E   E  S  S  S  S  E     E   E  E   E  S  S  S  S  E
-------------------------------|-------------------------------|
-------------------------------|-------------------------------|
-------------------------------|-------------------------------|
-------------------------------|-------------------------------|
-------------------------------|-------------------------------|
--3p--0--3p--0--1--1--1--1--0--|--3p--0--3p--0--1--1--1--1--0--|


                PM PM PM PM PM
  E   E  E   E  S  S  S  S  E     E  S S E.    S S S    E  S S E.    S S S
-------------------------------|---------------------|---------------------|
-------------------------------|--4--x-x-4S---10-x-x-|--4--x-x-4S---10-x-x-|
-------------------------------|--7--x-x-7S---13-x-x-|--7--x-x-7S---13-x-x-|
-------------------------------|---------------------|---------------------|
-------------------------------|---------------------|---------------------|
--3p--0--3p--0--1--1--1--1--0--|---------------------|---------------------|


                                      PM
  E  S S E.    S S S     E  S S  Q    E  E
---------------------|----------------------|
--4--x-x-4S---10-x-x-|--16--x-x-16----------|
--7--x-x-7S---13-x-x-|--19--x-x-19----------|
---------------------|----------------------|
---------------------|----------------0-----|
---------------------|----------------0-----|


                                PM            PM PM PM PM
    S  S  S  S S  S  S  S Q     E  E  Q       S  S  S  S  Q
-------------------------------------------|-------------------|
--<>6h-9p-6p-0-----------------------------|-------------------|
---------------6h-9p-6p-0-6b---------------|-------------------|
-------------------------------------------|--------------0----|
--------------------------------0----------|--------------6----|
--------------------------------0----------|--0--0--0--0-------|


  PM PM PM PM               PM PM PM PM         PM PM PM PM
  S  S  S  S  E  E  Q       S  S  S  S  Q       S  S  S  S  E  E  E  E  Q
-------------------------|-------------------|-------------------------------|
-------------------------|-------------------|-------------------------------|
-------------------------|-------------------|-------------------------------|
--------------0-----0----|--------------0----|--------------0-----0-----0----|
--------------6-----6----|--------------6----|--------------6-----6-----6----|
--0--0--0--0-------------|--0--0--0--0-------|--0--0--0--0-------------------|


  PM PM PM PM         PM PM PM PM               PM            PM PM PM PM
  S  S  S  S  Q       S  S  S  S  E  E  Q       E  E  Q       S  S  S  S  Q
-------------------|-------------------------|-------------|-------------------|
-------------------|-------------------------|-------------|-------------------|
-------------------|-------------------------|-------------|-------------------|
--------------0----|--------------0-----0----|-------------|--------------0----|
--------------6----|--------------6-----6----|--0----------|--------------6----|
--0--0--0--0-------|--0--0--0--0-------------|--0----------|--0--0--0--0-------|


  PM PM PM PM               PM            PM PM PM PM
  S  S  S  S  E  E  Q       E  E  Q       S  S  S  S   Q
-------------------------|-------------|--------------------|
-------------------------|-------------|--------------16----|
-------------------------|-------------|--------------19----|
--------------0-----0----|-------------|---------------x----|
--------------6-----6----|--0----------|--------------17----|
--0--0--0--0-------------|--0----------|--0--0--0--0--------|


  PM PM PM PM                 PM PM PM PM
  S  S  S  S   E  E   Q       S  S  S  S   Q
---------------------------|--------------------|
--------------16-----16----|--------------16----|
--------------19-----19----|--------------19----|
---------------x------x----|---------------x----|
--------------17-----17----|--------------17----|
--0--0--0--0---------------|--0--0--0--0--------|


  PM PM PM PM                        PM PM PM PM
  S  S  S  S   E  E   E  E   Q       S  S  S  S   Q
----------------------------------|--------------------|
--------------16-----16-----16----|--------------16----|
--------------19-----19-----19----|--------------19----|
---------------x------x------x----|---------------x----|
--------------17-----17-----17----|--------------17----|
--0--0--0--0----------------------|--0--0--0--0--------|


  PM PM PM PM                 PM PM PM PM
  S  S  S  S   E  E   Q       S  S  S  S   Q
---------------------------|---------------------|
--------------16-----16----|--------------16\----|
--------------19-----19----|--------------19\----|
---------------x------x----|---------------x-----|
--------------17-----17----|--------------17\----|
--0--0--0--0---------------|--0--0--0--0---------|


                PM PM PM PM PM                  PM PM PM PM PM
  E   E  E   E  S  S  S  S  E     E   E  E   E  S  S  S  S  E
-------------------------------|-------------------------------|
-------------------------------|-------------------------------|
-------------------------------|-------------------------------|
-------------------------------|-------------------------------|
-------------------------------|-------------------------------|
--3p--0--3p--0--1--1--1--1--0--|--3p--0--3p--0--1--1--1--1--0--|


  PM PM PM PM PM PM PM PM PM PM PM    PM PM PM PM PM PM PM PM PM PM PM
  S  S  E  S  S  E  S  S  S  S  E     S  S  E  S  S  E  S  S  S  S  E
-----------------------------------|-----------------------------------|
-----------------------------------|-----------------------------------|
-----------------------------------|-----------------------------------|
-----------------------------------|-----------------------------------|
--6--6--5--8--8--5--9--9--6--6--5--|--6--6--5--8--8--5--9--9--6--6--5--|
-----------------------------------|-----------------------------------|


  PM PM PM PM PM PM PM PM PM PM PM    PM PM PM PM PM PM PM PM PM
  S  S  E  S  S  E  S  S  S  S  E     S  S  E  S  S  S  S  S  S
-----------------------------------|-----------------------------|
-----------------------------------|-----------------------------|
-----------------------------------|-----------------------------|
-----------------------------------|-----------------------------|
--6--6--5--8--8--5--9--9--6--6--5--|--6--6--5--9--9--6--6--5--5--|
-----------------------------------|-----------------------------|


  PM PM PM  PM PMPM  PM PMPM PM PM    PM PM PM  PM PMPM  PM PMPM PM PM
  S  S  E   S  S E   S  S S  S  E     S  S  E   S  S E   S  S S  S  E
-----------------------------------|-----------------------------------|
-----------------------------------|-----------------------------------|
-----------------------------------|-----------------------------------|
-----------------------------------|-----------------------------------|
--9--9--8--11-11-8--12-12-9--9--8--|--9--9--8--11-11-8--12-12-9--9--8--|
-----------------------------------|-----------------------------------|


  PM PM PM  PM PMPM PM PM    PM PM PM  PM PMPM  PM PMPM PM PM
  S  S  E   S  S S  S  E     S  S  E   S  S E   S  S S  S  E
--------------------------|-----------------------------------|
--------------------------|-----------------------------------|
--------------------------|-----------------------------------|
--------------------------|-----------------------------------|
--9--9--8--12-12-9--9--8--|--9--9--8--11-11-8--12-12-9--9--8--|
--------------------------|-----------------------------------|


  PM PM PM PM PM PM PM PM PM PM PM    PM PM PM PM PM PM PM PM
  S  S  E  S  S  E  S  S  S  S  E     S  S  E  S  S  S  S  E
-----------------------------------|--------------------------|
-----------------------------------|--------------------------|
-----------------------------------|--------------------------|
-----------------------------------|--------------------------|
--6--6--5--8--8--5--9--9--6--6--5--|--6--6--5--9--9--6--6--5--|
-----------------------------------|--------------------------|


  PM PM PM PM PM PM PM PM PM PM PM    PM PM PM PM PM PM PM PM PM PM PM PM
  S  S  E  S  S  E  S  S  S  S  E     S  S  E  S  S  E  S  S  S  S  S  S
-----------------------------------|--------------------------------------|
-----------------------------------|--------------------------------------|
-----------------------------------|--------------------------------------|
-----------------------------------|--------------------------------------|
--6--6--5--8--8--5--9--9--6--6--5--|--6--6--5--8--8--5--9--9--6--6--5--5--|
-----------------------------------|--------------------------------------|


  PM PM PM  PM PMPM  PM PMPM PM PM    PM PM PM  PM PMPM  PM PMPM PM PM
  S  S  E   S  S E   S  S S  S  E     S  S  E   S  S E   S  S S  S  E
-----------------------------------|-----------------------------------|
-----------------------------------|-----------------------------------|
-----------------------------------|-----------------------------------|
-----------------------------------|-----------------------------------|
--9--9--8--11-11-8--12-12-9--9--8--|--9--9--8--11-11-8--12-12-9--9--8--|
-----------------------------------|-----------------------------------|


   PM PM PM  PM PM PM  PM PM PM PM PM             PM PM PM
   S  S  E   S  S  E   S  S  S  S  E     H        E  E  E
--------------------------------------|--0-----------------|
--------------------------------------|--0-----------------|
--------------------------------------|--0-----------------|
--------------------------------------|--------------------|
--12-12-11--14-14-11--15-15-12-12-11--|-----------4--1--0--|
--------------------------------------|-----------4--1--0--|


  E   E  E   E  E  E  E     E   E  E   E  E  E  E     E   E  E   E  E  E  E
-------------------------|-------------------------|-------------------------|
-------------------------|-------------------------|-------------------------|
-------------------------|-------------------------|-------------------------|
-------------------------|-------------------------|-------------------------|
-------------------------|-------------------------|-------------------------|
--1p--0--3p--0--4--1--0--|--1p--0--3p--0--4--1--0--|--1p--0--3p--0--4--1--0--|


                      PM
  E   E  E   E  E  E  E    Q        E   E  E   E  E  E  E
---------------------------------|-------------------------|
---------------------------------|-------------------------|
---------------------------------|-------------------------|
-------------------------<>3b----|-------------------------|
---------------------------------|-------------------------|
--1p--0--3p--0--4--1--0----------|--1p--0--3p--0--4--1--0--|


  E   E  E   E  E  E  E     E   E  E   E  E  E  E
-------------------------|-------------------------|
-------------------------|-------------------------|
-------------------------|-------------------------|
-------------------------|-------------------------|
-------------------------|-------------------------|
--1p--0--3p--0--4--1--0--|--1p--0--3p--0--4--1--0--|


                                       PM    PM PM PM PM
  E   E  E   E  E  E  E    Q        E  E  E  E  E  E  E
---------------------------------|-----------------------|
---------------------------------|-----------------------|
---------------------------------|-----------------------|
-------------------------<>5b----|-----------------------|
---------------------------------|--1--0--3--0--4--1--0--|
--1p--0--3p--0--4--1--0----------|--1--0--3--0--4--1--0--|


     PM    PM PM PM PM       PM    PM PM PM PM       PM    PM PM PM PM
  E  E  E  E  E  E  E     E  E  E  E  E  E  E     E  E  E  E  E  E  E  E  E
-----------------------|-----------------------|------------------------------|
-----------------------|-----------------------|-----------------------4--LS--|
-----------------------|-----------------------|-----------------------7--LS--|
-----------------------|-----------------------|------------------------------|
--1--0--3--0--4--1--0--|--1--0--3--0--4--1--0--|--1--0--3--0--4--1--0---------|
--1--0--3--0--4--1--0--|--1--0--3--0--4--1--0--|--1--0--3--0--4--1--0---------|


   S  S  E   S  S  E   S  S  S  S  E      S  S  E   S  S  E   S  S  E   E
--------------------------------------|------------------------------------|
-----16-----16-16-----16-16-16-16-----|--16-16-----16-16-----16-16---------|
--19----19--------19--------------19--|--------19--------19--------19--19--|
--------------------------------------|------------------------------------|
--------------------------------------|------------------------------------|
--------------------------------------|------------------------------------|


   S  S  E   S  S  E   S  S  E   E
------------------------------------|
--16-16-----16-16-----16-16---------|
--------19--------19--------19--19--|
------------------------------------|
------------------------------------|
------------------------------------|


                          Overdubbved harmonic.
   S  S  E   S  S  E   S  S                     E   E    Q
---------------------------------------------------------------|
--16-16-----16-16-----16-16------------------------------------|
--------19--------19---------------------------19--19----L-----|
-------------------------------------------------------<>7b----|
---------------------------------------------------------------|
---------------------------------------------------------------|


       PM      PM  PM         PM      PM  PM         PM      PM  PM
   E   E   E   E   E      E   E   E   E   E      E   E   E   E   E
----------------------|----------------------|----------------------|
---7-------7----------|---7-------7----------|---7-------7----------|
--10--10--10--10--10--|--10--10--10--10--10--|--10--10--10--10--10--|
----------------------|----------------------|----------------------|
----------------------|----------------------|----------------------|
----------------------|----------------------|----------------------|


       PM                 PM PM     PM PM         PM PM        PM PM     PM PM
   E   E   E  Q        E  S  S   E  S  S   E   E  S  S      E  S  S   E  S  S
-------------------|------------------------------------|----------------------|
---7-------7-------|------------------------------------|----------------------|
--10--10--10-------|--10--------10--------10--10--------|--10--------10--------|
-------------------|---9---------9---------9---9--------|---9---------9--------|
-------------------|---8---------8---------8---8--------|---8---------8--------|
-------------------|------0--0------0--0----------0--0--|------0--0------0--0--|


      PM PM     PM PM         PM        PM PM     PM PM         PM PM
   E  S  S   E  S  S   E   E  E      E  S  S   E  S  S   E   E  S  S
---------------------------------|------------------------------------|
---------------------------------|------------------------------------|
--10--------10--------10--10-----|--10--------10--------10--10--------|
---9---------9---------9---9-----|---9---------9---------9---9--------|
---8---------8---------8---8--0--|---8---------8---------8---8--------|
------0--0------0--0----------0--|------0--0------0--0----------0--0--|


      PM PM     PM PM        PM PM     PM PM         PM PM
   E  S  S   E  S  S      E  S  S   E  S  S   E   E  S  S   S  S  S  S
----------------------|------------------------------------10-10-10-10-|
--12--------12--------|--12--------12--------12--12--------14-14-14-14-|
--10--------10--------|--10--------10--------10--10--------------------|
---9---------9--------|---9---------9---------9---9--------------------|
---8---------8--------|---8---------8---------8---8--------------------|
------0--0------0--0--|------0--0------0--0----------0--0--------------|


      PM PM     PM PM         PM PM        PM PM     PM PM
   E  S  S   E  S  S   E   E  S  S      E  S  S   E  S  S
------------------------------------|----------------------|
------------------------------------|----------------------|
--10--------10--------10--10--------|--10--------10--------|
---9---------9---------9---9--------|---9---------9--------|
---8---------8---------8---8--------|---8---------8--------|
------0--0------0--0----------0--0--|------0--0------0--0--|


      PM PM     PM PM         PM PM        PM PM     PM PM         PM PM
   E  S  S   E  S  S   E   E  S  S      E  S  S   E  S  S   E   E  S  S
------------------------------------|------------------------------------|
------------------------------------|------------------------------------|
--10--------10--------10--10--------|--10--------10--------10--10--------|
---9---------9---------9---9--------|---9---------9---------9---9--------|
---8---------8---------8---8--------|---8---------8---------8---8--------|
------0--0------0--0----------0--0--|------0--0------0--0----------0--0--|


      PM PM     PM PM        PM PM     PM PM         PM PM
   E  S  S   E  S  S      E  S  S   E  S  S   E   E  S  S     E  E  E  Q
----------------------|------------------------------------|----------------|
--12--------12--------|--12--------12--------12--12--------|----------------|
--10--------10--------|--10--------10--------10--10--------|----------------|
---9---------9--------|---9---------9---------9---9--------|----------------|
---8---------8--------|---8---------8---------8---8--------|--0-----0-------|
------0--0------0--0--|------0--0------0--0----------0--0--|--0-----0-------|


                      PM PMPM PM  PM PMPM PM  PM PMPM PM  PM PMPM PM
  E  E  E  Q.         S  S S  S   S  S S  S   S  S S  S   S  S S  S
------------------|--------------------------------------------------|
------------------|--12-12-0--0--12-12-0--0--12-12-0--0--12-12-0--0--|
------------------|--------------------------------------------------|
------------------|--------------------------------------------------|
--0-----0---------|--------------------------------------------------|
--0-----0---------|--------------------------------------------------|


   PM PMPM PM  PM PMPM PM  PM PMPM PM  PM PMPM PM
   S  S S  S   S  S S  S   S  S S  S   S  S S  S
--------------------------------------------------|
--12-12-0--0--12-12-0--0--12-12-0--0--12-12-0--0--|
--------------------------------------------------|
--------------------------------------------------|
--------------------------------------------------|
--------------------------------------------------|


   PM PMPM PM  PM PMPM PM  PM PMPM PM  PM PMPM PM
   S  S S  S   S  S S  S   S  S S  S   S  S S  S
--------------------------------------------------|
--12-12-0--0--12-12-0--0--12-12-0--0--13-13-0--0--|
--------------------------------------------------|
--------------------------------------------------|
--------------------------------------------------|
--------------------------------------------------|


   PM PMPM PM  PM PMPM PM  PM PMPM PM  PM PMPM PM
   S  S S  S   S  S S  S   S  S S  S   S  S S  S
--------------------------------------------------|
--10-10-0--0--10-10-0--0--10-10-0--0--13-13-0--0--|
--------------------------------------------------|
--------------------------------------------------|
--------------------------------------------------|
--------------------------------------------------|


   PM PMPM PM  PM PMPM PM  PM PMPM PM  PM PMPM PM
   S  S S  S   S  S S  S   S  S S  S   S  S S  S
--------------------------------------------------|
--12-12-0--0--12-12-0--0--12-12-0--0--12-12-0--0--|
--------------------------------------------------|
--------------------------------------------------|
--------------------------------------------------|
--------------------------------------------------|


   PM PMPM PM  PM PMPM PM  PM PMPM PM  PM PMPM PM
   S  S S  S   S  S S  S   S  S S  S   S  S S  S
--------------------------------------------------|
--12-12-0--0--12-12-0--0--12-12-0--0--12-12-0--0--|
--------------------------------------------------|
--------------------------------------------------|
--------------------------------------------------|
--------------------------------------------------|


   PM PMPM PM  PM PMPM PM  PM PMPM PM  PM PMPM PM
   S  S S  S   S  S S  S   S  S S  S   S  S S  S
--------------------------------------------------|
--12-12-0--0--12-12-0--0--12-12-0--0--13-13-0--0--|
--------------------------------------------------|
--------------------------------------------------|
--------------------------------------------------|
--------------------------------------------------|


   PM PMPM PM  PM PMPM PM  PM PMPM PM  PM PMPM PM
   S  S S  S   S  S S  S   S  S S  S   S  S S  S
--------------------------------------------------|
--10-10-0--0--10-10-0--0--10-10-0--0--13-13-0--0--|
--------------------------------------------------|
--------------------------------------------------|
--------------------------------------------------|
--------------------------------------------------|


   PM PMPM PM  PM PMPM PM  PM PMPM PM  PM PMPM PM
   S  S S  S   S  S S  S   S  S S  S   S  S S  S
--------------------------------------------------|
--12-12-0--0--12-12-0--0--12-12-0--0--12-12-0--0--|
--------------------------------------------------|
--------------------------------------------------|
--------------------------------------------------|
--------------------------------------------------|


   PM PMPM PM  PM PMPM PM  PM PMPM PM  PM PMPM PM
   S  S S  S   S  S S  S   S  S S  S   S  S S  S
--------------------------------------------------|
--12-12-0--0--12-12-0--0--12-12-0--0--12-12-0--0--|
--------------------------------------------------|
--------------------------------------------------|
--------------------------------------------------|
--------------------------------------------------|


   PM PMPM PM  PM PMPM PM  PM PMPM PM  PM PMPM PM
   S  S S  S   S  S S  S   S  S S  S   S  S S  S
--------------------------------------------------|
--12-12-0--0--12-12-0--0--12-12-0--0--13-13-0--0--|
--------------------------------------------------|
--------------------------------------------------|
--------------------------------------------------|
--------------------------------------------------|


   PM PMPM PM  PM PMPM PM  PM PMPM PM  PM PMPM PM
   S  S S  S   S  S S  S   S  S S  S   S  S S  S
--------------------------------------------------|
--10-10-0--0--10-10-0--0--10-10-0--0--13-13-0--0--|
--------------------------------------------------|
--------------------------------------------------|
--------------------------------------------------|
--------------------------------------------------|


   PM PMPM PM  PM PMPM PM  PM PMPM PM  PM PMPM PM
   S  S S  S   S  S S  S   S  S S  S   S  S S  S
--------------------------------------------------|
--12-12-0--0--12-12-0--0--12-12-0--0--12-12-0--0--|
--------------------------------------------------|
--------------------------------------------------|
--------------------------------------------------|
--------------------------------------------------|


   PM PMPM PM  PM PMPM PM  PM PMPM PM  PM PMPM PM
   S  S S  S   S  S S  S   S  S S  S   S  S S  S
--------------------------------------------------|
--12-12-0--0--12-12-0--0--12-12-0--0--12-12-0--0--|
--------------------------------------------------|
--------------------------------------------------|
--------------------------------------------------|
--------------------------------------------------|


   PM PMPM PM  PM PMPM PM  PM PMPM PM  PM PMPM PM
   S  S S  S   S  S S  S   S  S S  S   S  S S  S
--------------------------------------------------|
--12-12-0--0--12-12-0--0--12-12-0--0--13-13-0--0--|
--------------------------------------------------|
--------------------------------------------------|
--------------------------------------------------|
--------------------------------------------------|


   PM PMPM PM  PM PMPM PM  PM PMPM PM  PM PMPM PM
   S  S S  S   S  S S  S   S  S S  S   S  S S  S
--------------------------------------------------|
--10-10-0--0--10-10-0--0--10-10-0--0--10-10-0--0--|
--------------------------------------------------|
--------------------------------------------------|
--------------------------------------------------|
--------------------------------------------------|


   PM PMPM PM  PM PMPM PM  PM PMPM PM  PM PMPM PM
   S  S S  S   S  S S  S   S  S S  S   S  S S  S
--------------------------------------------------|
--10-10-0--0--10-10-0--0--10-10-0--0--12-12-0--0--|
--------------------------------------------------|
--------------------------------------------------|
--------------------------------------------------|
--------------------------------------------------|


  PM PM PM PM PM PM PM PM PM PM PM PM PM PM PM PM
  S  S  S  S  S  S  S  S  S  S  S  S  S  S  S  S     W
--------------------------------------------------|-------------------|
--8--8--0--0--8--8--0--0--8--8--0--0--8--8--0--0--|--7----------------|
--------------------------------------------------|--x----------------|
--------------------------------------------------|--4----------------|
--------------------------------------------------|-------------------|
--------------------------------------------------|-------------------|


  W                   W                    W
-------------------|-------------------|--------------------|
--L----------------|--8----------------|--12----------------|
-------------------|--x----------------|---x----------------|
--L----------------|--5----------------|---9----------------|
-------------------|-------------------|--------------------|
-------------------|-------------------|--------------------|


  W                   W                   W
-------------------|-------------------|-------------------|
--7----------------|--L----------------|--8----------------|
--x----------------|-------------------|--x----------------|
--4----------------|--L----------------|--5----------------|
-------------------|-------------------|-------------------|
-------------------|-------------------|-------------------|


   H         H
----------------------|
--13--------12--------|
---x---------x--------|
--10---------9--------|
----------------------|
----------------------|


   T                     T                     T
   S  S   S   S   S  S   S  S   S   S   S  S   S  S   S   S
--20p-0h-12h-15p-12p-0h-20p-0h-12h-15p-12p-0h-20p-0h-12h-15h-|
-------------------------------------------------------------|
-------------------------------------------------------------|
-------------------------------------------------------------|
-------------------------------------------------------------|
-------------------------------------------------------------|


   T                     T                     T
   S  S   S   S   S  S   S  S   S   S   S  S   S  S   S   S
--20p-0h-12h-15p-12p-0h-20p-0h-12h-15p-12p-0h-20p-0h-12h-15h-|
-------------------------------------------------------------|
-------------------------------------------------------------|
-------------------------------------------------------------|
-------------------------------------------------------------|
-------------------------------------------------------------|


   T                     T                     T
   S  S   S   S   S  S   S  S   S   S   S  S   S  S   S   S
--19p-0h-10h-14p-10p-0h-19p-0h-10h-14p-10p-0h-19p-0h-10h-14h-|
-------------------------------------------------------------|
-------------------------------------------------------------|
-------------------------------------------------------------|
-------------------------------------------------------------|
-------------------------------------------------------------|


   T                     T                     T
   S  S   S   S   S  S   S  S   S   S   S  S   S  S   S   S
--19p-0h-10h-14p-10p-0h-19p-0h-10h-14p-10p-0h-19p-0h-10h-14h-|
-------------------------------------------------------------|
-------------------------------------------------------------|
-------------------------------------------------------------|
-------------------------------------------------------------|
-------------------------------------------------------------|


   T                     T                     T
   S  S   S   S   S  S   S  S   S   S   S  S   S  S   S   S
--20p-0h-12h-15p-12p-0h-20p-0h-12h-15p-12p-0h-20p-0h-12h-15h-|
-------------------------------------------------------------|
-------------------------------------------------------------|
-------------------------------------------------------------|
-------------------------------------------------------------|
-------------------------------------------------------------|


   T                     T                     T
   S  S   S   S   S  S   S  S   S   S   S  S   S  S   S   S
--20p-0h-12h-15p-12p-0h-20p-0h-12h-15p-12p-0h-20p-0h-12h-15h-|
-------------------------------------------------------------|
-------------------------------------------------------------|
-------------------------------------------------------------|
-------------------------------------------------------------|
-------------------------------------------------------------|


   T                     T                     T
   S  S   S   S   S  S   S  S   S   S   S  S   S  S   S   S
--19p-0h-10h-14p-10p-0h-19p-0h-10h-14p-10p-0h-19p-0h-10h-14h-|
-------------------------------------------------------------|
-------------------------------------------------------------|
-------------------------------------------------------------|
-------------------------------------------------------------|
-------------------------------------------------------------|


   T                     T
   S  S   S   S   S  S   S  S H
--19p-0h-10h-14p-10p-0h-19p-0----------|
---------------------------------------|
---------------------------------------|
---------------------------------------|
---------------------------------------|
---------------------------------------|


   T                     T                     T
   S  S   S   S   S  S   S  S   S   S   S  S   S  S   S   S
--20p-0h-12h-15p-12p-0h-20p-0h-12h-15p-12p-0h-20p-0h-12h-15h-|
-------------------------------------------------------------|
-------------------------------------------------------------|
-------------------------------------------------------------|
-------------------------------------------------------------|
-------------------------------------------------------------|


   T                     T                     T
   S  S   S   S   S  S   S  S   S   S   S  S   S  S   S   S
--20p-0h-12h-15p-12p-0h-20p-0h-12h-15p-12p-0h-20p-0h-12h-15h-|
-------------------------------------------------------------|
-------------------------------------------------------------|
-------------------------------------------------------------|
-------------------------------------------------------------|
-------------------------------------------------------------|


   T                     T                     T
   S  S   S   S   S  S   S  S   S   S   S  S   S  S   S   S
--19p-0h-10h-14p-10p-0h-19p-0h-10h-14p-10p-0h-19p-0h-10h-14h-|
-------------------------------------------------------------|
-------------------------------------------------------------|
-------------------------------------------------------------|
-------------------------------------------------------------|
-------------------------------------------------------------|


   T                     T                     T
   S  S   S   S   S  S   S  S   S   S   S  S   S  S   S   S
--19p-0h-10h-14p-10p-0h-19p-0h-10h-14p-10p-0h-19p-0h-10h-14h-|
-------------------------------------------------------------|
-------------------------------------------------------------|
-------------------------------------------------------------|
-------------------------------------------------------------|
-------------------------------------------------------------|


   T                     T                     T
   S  S   S   S   S  S   S  S   S   S   S  S   S  S   S   S
--20p-0h-12h-15p-12p-0h-20p-0h-12h-15p-12p-0h-20p-0h-12h-15h-|
-------------------------------------------------------------|
-------------------------------------------------------------|
-------------------------------------------------------------|
-------------------------------------------------------------|
-------------------------------------------------------------|


   T                     T                     T
   S  S   S   S   S  S   S  S   S   S   S  S   S  S   S   S
--20p-0h-12h-15p-12p-0h-20p-0h-12h-15p-12p-0h-20p-0h-12h-15h-|
-------------------------------------------------------------|
-------------------------------------------------------------|
-------------------------------------------------------------|
-------------------------------------------------------------|
-------------------------------------------------------------|


   T                     T                     T
   S  S   S   S   S  S   S  S   S   S   S  S   S  S   S   S
--19p-0h-10h-14p-10p-0h-19p-0h-10h-14p-10p-0h-19p-0h-10h-14h-|
-------------------------------------------------------------|
-------------------------------------------------------------|
-------------------------------------------------------------|
-------------------------------------------------------------|
-------------------------------------------------------------|


   T                     T                     T
   S  S   S   S   S  S   S  S   S   S   S  S   S  S   S   S
--19p-0h-10h-14p-10p-0h-19p-0h-10h-14p-10p-0h-19p-0h-10h-14h-|
-------------------------------------------------------------|
-------------------------------------------------------------|
-------------------------------------------------------------|
-------------------------------------------------------------|
-------------------------------------------------------------|


   T                     T                     T
   S  S   S   S   S  S   S  S   S   S   S  S   S  S   S   S
--20p-0h-12h-15p-12p-0h-20p-0h-12h-15p-12p-0h-20p-0h-12h-15h-|
-------------------------------------------------------------|
-------------------------------------------------------------|
-------------------------------------------------------------|
-------------------------------------------------------------|
-------------------------------------------------------------|


   T                     T                     T
   S  S   S   S   S  S   S  S   S   S   S  S   S  S   S   S
--20p-0h-12h-15p-12p-0h-20p-0h-12h-15p-12p-0h-20p-0h-12h-15h-|
-------------------------------------------------------------|
-------------------------------------------------------------|
-------------------------------------------------------------|
-------------------------------------------------------------|
-------------------------------------------------------------|


   T                     T                     T
   S  S   S   S   S  S   S  S   S   S   S  S   S  S   S   S
--19p-0h-10h-14p-10p-0h-19p-0h-10h-14p-10p-0h-19p-0h-10h-14h-|
-------------------------------------------------------------|
-------------------------------------------------------------|
-------------------------------------------------------------|
-------------------------------------------------------------|
-------------------------------------------------------------|


   T                     T                     T
   S  S   S   S   S  S   S  S   S   S   S  S   S  S   S   S
--19p-0h-10h-14p-10p-0h-19p-0h-10h-14p-10p-0h-19p-0h-10h-14h-|
-------------------------------------------------------------|
-------------------------------------------------------------|
-------------------------------------------------------------|
-------------------------------------------------------------|
-------------------------------------------------------------|


   T                     T                     T
   S  S   S   S   S  S   S  S   S   S   S  S   S  S   S   S
--20p-0h-12h-15p-12p-0h-20p-0h-12h-15p-12p-0h-20p-0h-12h-15h-|
-------------------------------------------------------------|
-------------------------------------------------------------|
-------------------------------------------------------------|
-------------------------------------------------------------|
-------------------------------------------------------------|


   T                     T                     T
   S  S   S   S   S  S   S  S   S   S   S  S   S  S   S   S
--20p-0h-12h-15p-12p-0h-20p-0h-12h-15p-12p-0h-20p-0h-12h-15h-|
-------------------------------------------------------------|
-------------------------------------------------------------|
-------------------------------------------------------------|
-------------------------------------------------------------|
-------------------------------------------------------------|


   T                     T                     T
   S  S   S   S   S  S   S  S   S   S   S  S   S  S   S   S
--19p-0h-10h-14p-10p-0h-19p-0h-10h-14p-10p-0h-19p-0h-10h-14h-|
-------------------------------------------------------------|
-------------------------------------------------------------|
-------------------------------------------------------------|
-------------------------------------------------------------|
-------------------------------------------------------------|


   T                     T                     T
   S  S   S   S   S  S   S  S   S   S   S  S   S  S   S   S
--19p-0h-10h-14p-10p-0h-19p-0h-10h-14p-10p-0h-19p-0h-10h-14h-|
-------------------------------------------------------------|
-------------------------------------------------------------|
-------------------------------------------------------------|
-------------------------------------------------------------|
-------------------------------------------------------------|


   T                   T                   T
   S  S  S   S  S  S   S  S  S   S  S  S   S  S  S   S
--17p-0h-8h-12p-8p-0h-17p-0h-8h-12p-8p-0h-17p-0h-8h-12h-|
--------------------------------------------------------|
--------------------------------------------------------|
--------------------------------------------------------|
--------------------------------------------------------|
--------------------------------------------------------|


   T                   T                   T
   S  S  S   S  S  S   S  S  S   S  S  S   S  S  S   S
--17p-0h-8h-12p-8p-0h-17p-0h-8h-12p-8p-0h-17p-0h-8h-12h-|
--------------------------------------------------------|
--------------------------------------------------------|
--------------------------------------------------------|
--------------------------------------------------------|
--------------------------------------------------------|


   T                   T                   T
   S  S  S   S  S  S   S  S  S   S  S  S   S  S  S   S
--15p-0h-7h-10p-7p-0h-15p-0h-7h-10p-7p-0h-15p-0h-7h-10h-|
--------------------------------------------------------|
--------------------------------------------------------|
--------------------------------------------------------|
--------------------------------------------------------|
--------------------------------------------------------|


   T                   T                   T
   S  S  S   S  S  S   S  S  S   S  S  S   S  S  S   S
--15p-0h-7h-10p-7p-0h-15p-0h-7h-10p-7p-0h-15p-0h-7h-10h-|
--------------------------------------------------------|
--------------------------------------------------------|
--------------------------------------------------------|
--------------------------------------------------------|
--------------------------------------------------------|


   T                   T                   T
   S  S  S   S  S  S   S  S  S   S  S  S   S  S  S   S
--17p-0h-8h-12p-8p-0h-17p-0h-8h-12p-8p-0h-17p-0h-8h-12h-|
--------------------------------------------------------|
--------------------------------------------------------|
--------------------------------------------------------|
--------------------------------------------------------|
--------------------------------------------------------|


   T                   T                   T
   S  S  S   S  S  S   S  S  S   S  S  S   S  S  S   S
--17p-0h-8h-12p-8p-0h-17p-0h-8h-12p-8p-0h-17p-0h-8h-12h-|
--------------------------------------------------------|
--------------------------------------------------------|
--------------------------------------------------------|
--------------------------------------------------------|
--------------------------------------------------------|


   T                   T                   T
   S  S  S   S  S  S   S  S  S   S  S  S   S  S  S   S
--15p-0h-7h-10p-7p-0h-15p-0h-7h-10p-7p-0h-15p-0h-7h-10h-|
--------------------------------------------------------|
--------------------------------------------------------|
--------------------------------------------------------|
--------------------------------------------------------|
--------------------------------------------------------|


   T                   T                   T
   S  S  S   S  S  S   S  S  S   S  S  S   S  S  S   S    W
--14p-0h-7h-10p-7p-0h-14p-0h-7h-10p-7p-0h-14p-0h-7h-10-|-------------------||
-------------------------------------------------------|-------------------||
-------------------------------------------------------|-------------------||
-------------------------------------------------------|-------------------||
-------------------------------------------------------|-------------------||
-------------------------------------------------------|-------------------||


                               The Darkest Tomb


                                                                      Nightmares
Left Rhythm Guitar
          PM PM     PM PM         PM PM        PM PM     PM PM
       E  S  S   E  S  S   E   E  S  S      E  S  S   E  S  S
D||-------------------------------------|----------------------|
A||-------------------------------------|----------------------|
F||*--10--------10--------10--10--------|--10--------10--------|
C||*---9---------9---------9---9--------|---9---------9--------|
G||----8---------8---------8---8--------|---8---------8--------|
C||-------0--0------0--0----------0--0--|------0--0------0--0--|


      PM PM     PM PM         PM PM        PM PM     PM PM         PM PM
   E  S  S   E  S  S   E   E  S  S      E  S  S   E  S  S   E   E  S  S
------------------------------------|------------------------------------|
------------------------------------|------------------------------------|
--10--------10--------10--10--------|--10--------10--------10--10--------|
---9---------9---------9---9--------|---9---------9---------9---9--------|
---8---------8---------8---8--------|---8---------8---------8---8--------|
------0--0------0--0----------0--0--|------0--0------0--0----------0--0--|


      PM PM     PM PM        PM PM     PM PM         PM PM
   E  S  S   E  S  S      E  S  S   E  S  S   E   E  S  S   S  S  S  S
----------------------|--------------------------------------------------||
----------------------|------------------------------------15-15-15-15---||
--10--------10--------|--10--------10--------10--10--------18-18-18-18-*-||
---9---------9--------|---9---------9---------9---9--------------------*-||
---8---------8--------|---8---------8---------8---8----------------------||
------0--0------0--0--|------0--0------0--0----------0--0----------------||


      PM  PM                PM  PM                        PM  PM
  E.  E.  E  S S S S    E.  E.  E  S S S S S S S S    E.  E.  E  S S S S
---------------------|-----------------------------|---------------------|
---------------------|-----------------------------|---------------------|
---------------------|-----------------------------|---------------------|
---------------------|-----------------------------|---------------------|
--5---4---0--6-6-6-5-|--5---4---0--6-6-6-6-5-5-5-5-|--5---4---0--6-6-6-5-|
--4---3---0----------|--4---3---0------------------|--4---3---0----------|


      PM  PM
  E.  E.  E  S S S S S S S S S S S S S S S S     E.  E.  E  T E  T E.  E
---------------------------------------------|----------------------------|
---------------------------------------------|----------------------------|
---------------------------------------------|----------------------------|
-----------------------------4-4-4-4-3-3-3-3-|----------------------------|
--5---4---0--6-6-6-6-5-5-5-5-----------------|--/5----------x-2--L--------|
--4---3---0----------------------------------|-------7---6---------3---2--|


  T          T                 PM  PM                PM  PM
  |---3---|  |---3---|
  E   E   E  E   E   E     E.  E.  E  S S S S    E.  E.  E  S S S S S S S S
--6p--0h--3-------------|---------------------|-----------------------------|
-------------6p--0h--3--|---------------------|-----------------------------|
------------------------|---------------------|-----------------------------|
------------------------|---------------------|-----------------------------|
------------------------|--5---4---0--6-6-6-5-|--5---4---0--6-6-6-6-5-5-5-5-|
------------------------|--4---3---0----------|--4---3---0------------------|


      PM  PM                PM  PM
  E.  E.  E  S S S S    E.  E.  E  S S S S
---------------------|---------------------|
---------------------|---------------------|
---------------------|---------------------|
---------------------|---------------------|
--5---4---0--6-6-6-5-|--5---4---0--6-6-6-5-|
--4---3---0----------|--4---3---0----------|


      PM  PM
  E.  E.  E  S S S S S S S S S S S S S S S S      E.   E.  E  T E  T E.  E
---------------------------------------------|------------------------------|
---------------------------------------------|------------------------------|
---------------------------------------------|------------------------------|
-----------------------------4-4-4-4-3-3-3-3-|------------------------------|
--5---4---0--6-6-6-6-5-5-5-5-----------------|--<>5b----------x-2--L--------|
--4---3---0----------------------------------|---------7---6---------3---2--|


  T          T          T          T                                     PM
  |---3---|  |---3---|  |---3---|  |---3---|  |---3---|
  E   E   E  E   E   E  E   E   E  E   E   E  E   E   E     H.           E  E
--6p--0h--3-------------9p--0h--6------------------------|---------------------|
-------------6p--0h--3-------------9p--0h--6-------------|---------------------|
----------------------------------------------6p--0h--3--|---------------------|
---------------------------------------------------------|--0------------0-----|
---------------------------------------------------------|--0------------0-----|
---------------------------------------------------------|--0------------0-----|


                PM PM PM PM                     PM PM PM PM
  E   E  E   E  S  S  S  S  E     E   E  E   E  S  S  S  S  E
-------------------------------|-------------------------------|
-------------------------------|-------------------------------|
-------------------------------|-------------------------------|
-------------------------------|-------------------------------|
-------------------------------|-------------------------------|
--3p--0--3p--0--1--1--1--1--0--|--3p--0--3p--0--1--1--1--1--0--|


                PM PM PM PM                     PM PM PM PM PM
  E   E  E   E  S  S  S  S  E     E   E  E   E  S  S  S  S  E
-------------------------------|-------------------------------|
-------------------------------|-------------------------------|
-------------------------------|-------------------------------|
-------------------------------|-------------------------------|
-------------------------------|-------------------------------|
--3p--0--3p--0--1--1--1--1--0--|--3p--0--3p--0--1--1--1--1--0--|


  E  E  E.    E  S    E  E  E.    E  S    E  E  E.    E  S     E  E   H
-------------------|-------------------|-------------------|-------------------|
--4-----4s---10----|--4-----4s---10----|--4-----4s---10----|--16-----16--------|
--7--x--7s---13--x-|--7--x--7s---13--x-|--7--x--7s---13--x-|--19--x--19--------|
-------------------|-------------------|-------------------|-------------------|
-------------------|-------------------|-------------------|-------------------|
-------------------|-------------------|-------------------|-------------------|


                PM PM PM PM                     PM PM PM PM PM
  E   E  E   E  S  S  S  S  E     E   E  E   E  S  S  S  S  E
-------------------------------|-------------------------------|
-------------------------------|-------------------------------|
-------------------------------|-------------------------------|
-------------------------------|-------------------------------|
-------------------------------|-------------------------------|
--3p--0--3p--0--1--1--1--1--0--|--3p--0--3p--0--1--1--1--1--0--|


                PM PM PM PM                     PM PM PM PM PM
  E   E  E   E  S  S  S  S  E     E   E  E   E  S  S  S  S  E
-------------------------------|-------------------------------|
-------------------------------|-------------------------------|
-------------------------------|-------------------------------|
-------------------------------|-------------------------------|
-------------------------------|-------------------------------|
--3p--0--3p--0--1--1--1--1--0--|--3p--0--3p--0--1--1--1--1--0--|


  E  S S E.    S S S    E  S S E.    S S S    E  S S E.    S S S
---------------------|---------------------|---------------------|
--4--x-x-4S---10-x-x-|--4--x-x-4S---10-x-x-|--4--x-x-4S---10-x-x-|
--7--x-x-7S---13-x-x-|--7--x-x-7S---13-x-x-|--7--x-x-7S---13-x-x-|
---------------------|---------------------|---------------------|
---------------------|---------------------|---------------------|
---------------------|---------------------|---------------------|


                PM                                         PM
   E  S S  Q    E  E       S  S  S  S   S  S  S  S   Q     E  E  Q
----------------------|-----------------------------------------------|
--16--x-x-16----------|--<>3h-6p-3p-0---------------------------------|
--19--x-x-19----------|---------------<>3h-6p-3p-0--------------------|
----------------------|----------------------------<>3b---------------|
----------------0-----|------------------------------------0----------|
----------------0-----|------------------------------------0----------|


  PM PM PM PM         PM PM PM PM               PM PM PM PM
  S  S  S  S  Q       S  S  S  S  E  E  Q       S  S  S  S  Q
-------------------|-------------------------|-------------------|
-------------------|-------------------------|-------------------|
-------------------|-------------------------|-------------------|
--------------0----|--------------0-----0----|--------------0----|
--------------6----|--------------6-----6----|--------------6----|
--0--0--0--0-------|--0--0--0--0-------------|--0--0--0--0-------|


  PM PM PM PM                     PM PM PM PM         PM PM PM PM
  S  S  S  S  E  E  E  E  Q       S  S  S  S  Q       S  S  S  S  E  E  Q
-------------------------------|-------------------|-------------------------|
-------------------------------|-------------------|-------------------------|
-------------------------------|-------------------|-------------------------|
--------------0-----0-----0----|--------------0----|--------------0-----0----|
--------------6-----6-----6----|--------------6----|--------------6-----6----|
--0--0--0--0-------------------|--0--0--0--0-------|--0--0--0--0-------------|


  PM            PM PM PM PM         PM PM PM PM               PM
  E  E  Q       S  S  S  S  Q       S  S  S  S  E  E  Q       E  E  Q
-------------|-------------------|-------------------------|-------------|
-------------|-------------------|-------------------------|-------------|
-------------|-------------------|-------------------------|-------------|
-------------|--------------0----|--------------0-----0----|-------------|
--0----------|--------------6----|--------------6-----6----|--0----------|
--0----------|--0--0--0--0-------|--0--0--0--0-------------|--0----------|


  PM PM PM PM          PM PM PM PM                 PM PM PM PM
  S  S  S  S   Q       S  S  S  S   E  E   Q       S  S  S  S   Q
--------------------|---------------------------|--------------------|
--------------16----|--------------16-----16----|--------------16----|
--------------19----|--------------19-----19----|--------------19----|
---------------x----|---------------x------x----|---------------x----|
--------------17----|--------------17-----17----|--------------17----|
--0--0--0--0--------|--0--0--0--0---------------|--0--0--0--0--------|


  PM PM PM PM                        PM PM PM PM
  S  S  S  S   E  E   E  E   Q       S  S  S  S   Q
----------------------------------|--------------------|
--------------16-----16-----16----|--------------16----|
--------------19-----19-----19----|--------------19----|
---------------x------x------x----|---------------x----|
--------------17-----17-----17----|--------------17----|
--0--0--0--0----------------------|--0--0--0--0--------|


  PM PM PM PM                 PM PM PM PM
  S  S  S  S   E  E   Q       S  S  S  S   Q
---------------------------|---------------------|
--------------16-----16----|--------------16\----|
--------------19-----19----|--------------19\----|
---------------x------x----|---------------x-----|
--------------17-----17----|--------------17\----|
--0--0--0--0---------------|--0--0--0--0---------|


                PM PM PM PM PM                  PM PM PM PM PM
  E   E  E   E  S  S  S  S  E     E   E  E   E  S  S  S  S  E
-------------------------------|-------------------------------|
-------------------------------|-------------------------------|
-------------------------------|-------------------------------|
-------------------------------|-------------------------------|
-------------------------------|-------------------------------|
--3p--0--3p--0--1--1--1--1--0--|--3p--0--3p--0--1--1--1--1--0--|


   The rythms here almsot seem random.  Let all ring out
   E                                                    E   E  E  E   E   E
-----------------------------------------------------------------------------|
--10-------------------------------------------------------10--------10--10--|
-----------------------------------------------------------------------------|
--------------------------------------------------------0------0--0----------|
-----------------------------------------------------------------------------|
-----------------------------------------------------------------------------|


   E  E  E  E   E  E   E     E  E   E   E   E  E  E      E  E   E  E   E
--------------------------|--------------------------|--------------------|
--10-----------10-----10--|--------10--10--10--------|--10-----10-----10--|
--------------------------|--------------------------|--------------------|
------0--0--0------0------|--0--0--------------0--0--|------0------0------|
--------------------------|--------------------------|--------------------|
--------------------------|--------------------------|--------------------|


  E   E  E   E   E   E   E     E   E  E   E   E   E   E     E   E  E   E   E
----------------------------|----------------------------|--------------------|
-----10-----10--10--10--10--|-----10-----10--10--10--10--|-----10-----10--10--|
----------------------------|----------------------------|--------------------|
----------------------------|----------------------------|--------------------|
--8------8------------------|--8------8------------------|--8------8----------|
----------------------------|----------------------------|--------------------|


   E   E  E   E  E   E   E      E  E   E  E  E   E   E      E  E  E  E   E
----------------------------|---------------------------|-------------------|
--10--10-----10-----10--10--|--10-----10--------10--10--|--10-----------10--|
----------------------------|---------------------------|-------------------|
----------------------------|------0------0--0----------|------0--0--0------|
----------8------8----------|---------------------------|-------------------|
----------------------------|---------------------------|-------------------|


  E  E   E   E   E  E  E      E  E   E  E   E   E   E
--------------------------|----------------------------|
--------10--10--10--------|--10-----10-----10--10--10--|
--------------------------|----------------------------|
--0--0--------------0--0--|------0------0--------------|
--------------------------|----------------------------|
--------------------------|----------------------------|


  E   E  E   E   E   E   E     E   E  E   E   E   E   E
----------------------------|----------------------------|
-----10-----10--10--10--10--|-----10-----10--10--10--10--|
----------------------------|----------------------------|
----------------------------|----------------------------|
--8------8------------------|--8------8------------------|
----------------------------|----------------------------|


  E   E  E   E   E   E   E
----------------------------|
-----10-----10--10--10--10--|
----------------------------|
----------------------------|
--8------8------------------|
----------------------------|


                  Parts overdubbed, not actually played with one guitar.
                  PM                                                     PM  PM
  E   E   E   E   E                                                      E   E
--------------------------------------------------------------------------------|
-----10--10--10--10-----------------------------------------------------10--10--|
--------------------------------------------------------------------------------|
--------------------------------------------------------------------------------|
--8---------------4------------------------------------------------------1---0--|
------------------4------------------------------------------------------1---0--|


  E   E  E   E  E  E  E     E   E  E   E  E  E  E     E   E  E   E  E  E  E
-------------------------|-------------------------|-------------------------|
-------------------------|-------------------------|-------------------------|
-------------------------|-------------------------|-------------------------|
-------------------------|-------------------------|-------------------------|
-------------------------|-------------------------|-------------------------|
--1p--0--3p--0--4--1--0--|--1p--0--3p--0--4--1--0--|--1p--0--3p--0--4--1--0--|


                      PM
  E   E  E   E  E  E  E    Q        E   E  E   E  E  E  E
---------------------------------|-------------------------|
---------------------------------|-------------------------|
-------------------------<>2b----|-------------------------|
---------------------------------|-------------------------|
---------------------------------|-------------------------|
--1p--0--3p--0--4--1--0----------|--1p--0--3p--0--4--1--0--|


  E   E  E   E  E  E  E     E   E  E   E  E  E  E
-------------------------|-------------------------|
-------------------------|-------------------------|
-------------------------|-------------------------|
-------------------------|-------------------------|
-------------------------|-------------------------|
--1p--0--3p--0--4--1--0--|--1p--0--3p--0--4--1--0--|


                PM PM PM            PM PM PM PM PM PM PM
  E   E  E   E  E  E  E    Q        E  E  E  E  E  E  E
---------------------------------|-----------------------|
---------------------------------|-----------------------|
---------------------------------|-----------------------|
-------------------------<>3b----|-----------------------|
---------------------------------|--1--0--3--0--4--1--0--|
--1p--0--3p--0--4--1--0----------|--1--0--3--0--4--1--0--|


  PM PM PM PM PM PM PM    PM PM PM PM PM PM PM    PM PM PM PM PM PM PM
  E  E  E  E  E  E  E     E  E  E  E  E  E  E     E  E  E  E  E  E  E    Q
-----------------------|-----------------------|-------------------------------|
-----------------------|-----------------------|-------------------------------|
-----------------------|-----------------------|-------------------------------|
-----------------------|-----------------------|-------------------------------|
--1--0--3--0--4--1--0--|--1--0--3--0--4--1--0--|--1--0--3--0--4--1--0--<>5b----|
--1--0--3--0--4--1--0--|--1--0--3--0--4--1--0--|--1--0--3--0--4--1--0----------|


  PM PM PM PM PM PM PM    PM PM PM PM PM PM PM    PM PM PM PM PM PM PM
  E  E  E  E  E  E  E     E  E  E  E  E  E  E     E  E  E  E  E  E  E
-----------------------|-----------------------|-----------------------|
-----------------------|-----------------------|-----------------------|
-----------------------|-----------------------|-----------------------|
-----------------------|-----------------------|-----------------------|
--1--0--3--0--4--1--0--|--1--0--3--0--4--1--0--|--1--0--3--0--4--1--0--|
--1--0--3--0--4--1--0--|--1--0--3--0--4--1--0--|--1--0--3--0--4--1--0--|


  PM PM PM PM PM PM PM
  E  E  E  E  E  E  E    Q        H        E     H        E     H        E
-------------------------------|--------------|--------------|--------------|
-------------------------------|--------------|--------------|--------------|
-------------------------------|--------------|--------------|--------------|
-----------------------<>3b----|--------------|--------------|--------------|
--1--0--3--0--4--1--0----------|--------------|--------------|--------------|
--1--0--3--0--4--1--0----------|--------------|--------------|--------------|


                     PM PM     PM PM         PM PM        PM PM     PM PM
  H        E      E  S  S   E  S  S   E   E  S  S      E  S  S   E  S  S
--------------|------------------------------------|----------------------|
--------------|------------------------------------|----------------------|
--------------|--10--------10--------10--10--------|--10--------10--------|
--------------|---9---------9---------9---9--------|---9---------9--------|
--------------|---8---------8---------8---8--------|---8---------8--------|
--------------|------0--0------0--0----------0--0--|------0--0------0--0--|


      PM PM     PM PM         PM PM        PM PM     PM PM         PM PM
   E  S  S   E  S  S   E   E  S  S      E  S  S   E  S  S   E   E  S  S
------------------------------------|------------------------------------|
------------------------------------|------------------------------------|
--10--------10--------10--10--------|--10--------10--------10--10--------|
---9---------9---------9---9--------|---9---------9---------9---9--------|
---8---------8---------8---8--------|---8---------8---------8---8--------|
------0--0------0--0----------0--0--|------0--0------0--0----------0--0--|


      PM PM     PM PM        PM PM     PM PM         PM PM
   E  S  S   E  S  S      E  S  S   E  S  S   E   E  S  S   S  S  S  S
----------------------|------------------------------------------------|
----------------------|------------------------------------15-15-15-15-|
--10--------10--------|--10--------10--------10--10--------18-18-18-18-|
---9---------9--------|---9---------9---------9---9--------------------|
---8---------8--------|---8---------8---------8---8--------------------|
------0--0------0--0--|------0--0------0--0----------0--0--------------|


      PM PM     PM PM         PM PM        PM PM     PM PM
   E  S  S   E  S  S   E   E  S  S      E  S  S   E  S  S
------------------------------------|----------------------|
------------------------------------|----------------------|
--10--------10--------10--10--------|--10--------10--------|
---9---------9---------9---9--------|---9---------9--------|
---8---------8---------8---8--------|---8---------8--------|
------0--0------0--0----------0--0--|------0--0------0--0--|


      PM PM     PM PM         PM PM        PM PM     PM PM         PM PM
   E  S  S   E  S  S   E   E  S  S      E  S  S   E  S  S   E   E  S  S
------------------------------------|------------------------------------|
------------------------------------|--12--------12--------12--12--------|
--10--------10--------10--10--------|--10--------10--------10--10--------|
---9---------9---------9---9--------|---9---------9---------9---9--------|
---8---------8---------8---8--------|---8---------8---------8---8--------|
------0--0------0--0----------0--0--|------0--0------0--0----------0--0--|


      PM PM     PM PM        PM PM     PM PM         PM PM
   E  S  S   E  S  S      E  S  S   E  S  S   E   E  S  S     E  E  E  Q
----------------------|------------------------------------|----------------|
--12--------12--------|--12--------12--------12--12--------|----------------|
--10--------10--------|--10--------10--------10--10--------|----------------|
---9---------9--------|---9---------9---------9---9--------|----------------|
---8---------8--------|---8---------8---------8---8--------|--0-----0-------|
------0--0------0--0--|------0--0------0--0----------0--0--|--0-----0-------|


  E  E  E  Q.        W                   W                   W
------------------|-------------------|-------------------|-------------------|
------------------|-------------------|-------------------|-------------------|
------------------|-------------------|-------------------|-------------------|
------------------|--2----------------|--L----------------|--5----------------|
--0-----0---------|--2----------------|--L----------------|--5----------------|
--0-----0---------|--2----------------|--L----------------|--5----------------|


  W                   W                   W                   W
-------------------|-------------------|-------------------|-------------------|
-------------------|-------------------|-------------------|-------------------|
-------------------|-------------------|-------------------|-------------------|
--4----------------|--2----------------|--L----------------|--5----------------|
--5----------------|--2----------------|--L----------------|--5----------------|
--4----------------|--2----------------|--L----------------|--5----------------|


  W                   W                   W
-------------------|-------------------|-------------------|
-------------------|-------------------|-------------------|
-------------------|-------------------|-------------------|
--4----------------|--2----------------|--L----------------|
--5----------------|--2----------------|--L----------------|
--4----------------|--2----------------|--L----------------|


  H         H           W                   W
---------------------|-------------------|-------------------|
---------------------|-------------------|-------------------|
---------------------|-------------------|-------------------|
--5s--------7--------|--4----------------|--2----------------|
--5s--------7--------|--5----------------|--2----------------|
--5s--------7--------|--4----------------|--2----------------|


  W                   H         H           W
-------------------|---------------------|-------------------|
-------------------|---------------------|-------------------|
-------------------|---------------------|-------------------|
--L----------------|--5s--------7--------|--4----------------|
--L----------------|--5s--------7--------|--5----------------|
--L----------------|--5s--------7--------|--4----------------|


  W                   W                   W                   W
-------------------|-------------------|-------------------|-------------------|
-------------------|-------------------|-------------------|-------------------|
-------------------|-------------------|-------------------|-------------------|
--4----------------|--2----------------|--2----------------|--L----------------|
--5----------------|--3----------------|--2----------------|--L----------------|
--4----------------|--2----------------|--2----------------|--L----------------|


  W                   W                   W                   W
-------------------|-------------------|-------------------|-------------------|
-------------------|-------------------|-------------------|-------------------|
-------------------|-------------------|-------------------|-------------------|
--2----------------|--0----------------|--2----------------|--L----------------|
--3----------------|--0----------------|--2----------------|--L----------------|
--2----------------|--0----------------|--2----------------|--L----------------|


  W                   W                   W                   W
-------------------|-------------------|-------------------|-------------------|
-------------------|-------------------|-------------------|-------------------|
-------------------|-------------------|-------------------|-------------------|
--2----------------|--0----------------|--2----------------|--L----------------|
--3----------------|--0----------------|--2----------------|--L----------------|
--2----------------|--0----------------|--2----------------|--L----------------|


  W                   W                   W                   W
-------------------|-------------------|-------------------|-------------------|
-------------------|-------------------|-------------------|-------------------|
-------------------|-------------------|-------------------|-------------------|
--2----------------|--4----------------|--2----------------|--L----------------|
--3----------------|--5----------------|--2----------------|--L----------------|
--2----------------|--4----------------|--2----------------|--L----------------|


                                           PM PM             PM PM PM PM
  W                   H        H           S  S  H        E  S  S  S  S
-------------------|--------------------|--------------------------------|
-------------------|--------------------|--------------------------------|
-------------------|--------------------|--------------------------------|
--2----------------|--4-----------------|--------------------------------|
--3----------------|--5-----------------|--2--2--------------2--2--2--2--|
--2----------------|--4-----------------|--2--2--------------2--2--2--2--|


  PM PM        PM PM PM PM PM PM PM PM    PM PM             PM PM PM PM
  S  S  Q.     S  S  S  S  S  S  S  S     S  S  H        E  S  S  S  S
---------------------------------------|--------------------------------|
---------------------------------------|--------------------------------|
---------------------------------------|--------------------------------|
---------------------------------------|--------------------------------|
--2--2---------2--2--2--2--2--2--2--2--|--3--3--------------3--3--3--3--|
--2--2---------2--2--2--2--2--2--2--2--|--2--2--------------2--2--2--2--|


  PM PM      PM PM               PM PM             PM PM PM PM
  S  S  Q    S  S  E.  E.  E     S  S  H        E  S  S  S  S
------------------------------|--------------------------------|
------------------------------|--------------------------------|
---------------------------0--|--------------------------------|
-----------------------4---L--|--------------------------------|
--3--3-------------5-------L--|--2--2--------------2--2--2--2--|
--2--2-------0--0-------------|--2--2--------------2--2--2--2--|


  PM PM        PM PM PM PM PM PM PM PM    PM PM             PM PM PM PM
  S  S  Q.     S  S  S  S  S  S  S  S     S  S  H        E  S  S  S  S
---------------------------------------|--------------------------------|
---------------------------------------|--------------------------------|
---------------------------------------|--------------------------------|
---------------------------------------|--------------------------------|
--2--2---------2--2--2--2--2--2--2--2--|--3--3--------------3--3--3--3--|
--2--2---------2--2--2--2--2--2--2--2--|--2--2--------------2--2--2--2--|


  PM PM      PM PM               PM PM             PM PM PM PM
  S  S  Q    S  S  E.  E.  E     S  S  H        E  S  S  S  S
------------------------------|--------------------------------|
------------------------------|--------------------------------|
---------------------------0--|--------------------------------|
-----------------------4---L--|--------------------------------|
--3--3-------------5-------L--|--2--2--------------2--2--2--2--|
--2--2-------0--0-------------|--2--2--------------2--2--2--2--|


  PM PM        PM PM PM PM PM PM PM PM    PM PM             PM PM PM PM
  S  S  Q.     S  S  S  S  S  S  S  S     S  S  H        E  S  S  S  S
---------------------------------------|--------------------------------|
---------------------------------------|--------------------------------|
---------------------------------------|--------------------------------|
---------------------------------------|--------------------------------|
--2--2---------2--2--2--2--2--2--2--2--|--3--3--------------3--3--3--3--|
--2--2---------2--2--2--2--2--2--2--2--|--2--2--------------2--2--2--2--|


  PM PM                       PM PM             PM PM PM PM
  S  S  Q    E  E.  E.  E     S  S  H        E  S  S  S  S
---------------------------|--------------------------------|
---------------------------|--------------------------------|
------------------------0--|--------------------------------|
--------------------4---L--|--------------------------------|
--3--3----------5-------L--|--2--2--------------2--2--2--2--|
--2--2-------0----------L--|--2--2--------------2--2--2--2--|


  PM PM        PM PM PM PM PM PM PM PM    PM PM             PM PM PM PM
  S  S  Q.     S  S  S  S  S  S  S  S     S  S  H        E  S  S  S  S
---------------------------------------|--------------------------------|
---------------------------------------|--------------------------------|
---------------------------------------|--------------------------------|
---------------------------------------|--------------------------------|
--2--2---------2--2--2--2--2--2--2--2--|--3--3--------------3--3--3--3--|
--2--2---------2--2--2--2--2--2--2--2--|--2--2--------------2--2--2--2--|


  PM PM
  S  S  Q    E  E.  E.  E     S S H        E  S S S S
---------------------------|--------------------------|
---------------------------|--------------------------|
------------------------0--|--------------------------|
--------------------4---L--|--------------------------|
--3--3----------5-------L--|--2-2----------L--2-2-2-2-|
--2--2-------0----------L--|--2-2----------L--2-2-2-2-|


  S S Q.     S S S S S S S S    S S H        E  S S S S
-----------------------------|--------------------------|
-----------------------------|--------------------------|
-----------------------------|--------------------------|
-----------------------------|--------------------------|
--2-2-L------2-2-2-2-2-2-2-2-|--3-3----------L--3-3-3-3-|
--2-2-L------2-2-2-2-2-2-2-2-|--2-2----------L--2-2-2-2-|


  S S Q    E  E.  E.  E     S S H        E  S S S S
-------------------------|--------------------------|
-------------------------|--------------------------|
----------------------0--|--------------------------|
------------------4---L--|--------------------------|
--3-3-L-------5-------L--|--2-2----------L--2-2-2-2-|
--2-2-L----0-------------|--2-2----------L--2-2-2-2-|


  S S Q.     S S S S S S S S    S S H        E  S S S S
-----------------------------|--------------------------|
-----------------------------|--------------------------|
-----------------------------|--------------------------|
-----------------------------|--------------------------|
--2-2-L------2-2-2-2-2-2-2-2-|--3-3----------L--3-3-3-3-|
--2-2-L------2-2-2-2-2-2-2-2-|--2-2----------L--2-2-2-2-|


                            PM PM
  S S Q    E  E.  E.  E     S  S  E  H.
-------------------------|------------------------||
-------------------------|------------------------||
----------------------0--|------------------------||
------------------4---L--|------------------------||
--3-3-L-------5-------L--|--2--2------------------||
--2-2-L----0-------------|--2--2------------------||


                               The Darkest Tomb


                                                                      Nightmares
Center Rhythm Guitar Fill between 2:13 - 2:35


    H.           Q
|--------------------|
|--------------------|
|--0-----------------|
|--5-----------------|
|--7------------7----|
|--------------------|


  Q    Q    Q    Q       W                   W
----------------------|-------------------|-------------------|
--0--------------L----|-------------------|-------------------|
-------0---------L----|-------------------|-------------------|
------------4----L----|--5----------------|--4----------------|
------------L----7----|--5----------------|--5----------------|
----------------------|--5----------------|--4----------------|


  H.           Q       Q    Q    Q    Q       W
--------------------|----------------------|-------------------|
--------------------|--0--------------L----|-------------------|
--0-----------------|-------0---------L----|-------------------|
--5-----------------|------------4----L----|--5----------------|
--7------------7----|------------L----7----|--5----------------|
--------------------|----------------------|--5----------------|


  W                   H.           Q       Q    Q    Q    Q
-------------------|--------------------|----------------------|
-------------------|--------------------|--0--------------L----|
-------------------|--0-----------------|-------0---------L----|
--4----------------|--5-----------------|------------4----L----|
--5----------------|--7------------7----|------------L----7----|
--4----------------|--------------------|----------------------|


  W                   W                   H.           Q
-------------------|-------------------|--------------------|
-------------------|-------------------|--------------------|
-------------------|-------------------|--0-----------------|
--5----------------|--4----------------|--5-----------------|
--5----------------|--5----------------|--7------------7----|
--5----------------|--4----------------|--------------------|


  Q    Q    Q    Q       W
----------------------|-------------------|
--0--------------L----|-------------------|
-------0---------L----|-------------------|
------------4----L----|--5----------------|
------------L----7----|--5----------------|
----------------------|--5----------------|


  Follows left guitar for rest of song.
  W
----------------------------------------|-------|-------|-------|-------|
----------------------------------------|-------|-------|-------|-------|
----------------------------------------|-------|-------|-------|-------|
--4-------------------------------------|-------|-------|-------|-------|
--5-------------------------------------|-------|-------|-------|-------|
--4-------------------------------------|-------|-------|-------|-------|
comments
We did not receive enough feedback on this tab! Please rate:
print report bad tab
1 2 3 4 5
I want to post or [tab]
guest
You may want to rate the tab now too:
select rating
Please do not post tabs as comments. Select "correction" instead!