Oops, an error
Loading. Please wait.

To The Death Tab

ver1
ver1

Whole song

Interactive

More versions @911Tabs.com
5,135 views 1 this week
3 commentsread comments
1 2 3 4 5
excellent!
x 2
Autoscroll
+/-
esc
set tempo
stop
Contributor
Difficulty
Tuning
advanced
C G C F A D
Hey! There's an official Ultimate Guitar app which is ideal
for learning songs when you're away from computer. Get the app
WARNING: You are trying to view
                                    content from Ultimate-Guitar.com
                                    in an unauthorized application,
                                    which is prohibited.

                                    Please use an official Ultimate
                                    Guitar Tabs application for iPhone,
                                    iPad or Android to access legitimate
                                    chords, guitar, bass, and drum tabs
                                    from Ultimate-Guitar.com database.

                                    Type "ultimate guitar tabs" in Apple
                                    App Store's or Android Market's
                                    search to find the application.
All credit goes to m3tz, this is just the ASCII version of his PowerTab for anyone just 
for a tab.

#----------------------------------PLEASE NOTE---------------------------------#
#This file is the author's own work and represents their interpretation of the #
#song. You may only use this file for private study, scholarship, or research. #
#------------------------------------------------------------------------------##


Gtr I (C G C F A D) - 'Guitar 1'
Gtr II (C G C F A D) - 'Guitar 2'

  Q=162
 4/4
  Gtr I
--------------------------------------------TP  T         T
  E E E E E E E E   e. E. E  E  E E E E E E E   S S S  S  S S S  S
|-----------------|----------------------------12p0h6h=9--------------|
|-----------------|----4----------------------------------------------|
|-----------------|----7---------------------------------12p0h6h=9----|
|-----------------|-0-----0-11-10-8-7---------------------------------|
|-4-3-1-0---------|-0-----0-----------9-8-6-8-------------------------|
|---------4-3-1-3-|-0-----0-------------------------------------------|
|
| Gtr II
|-------------------------------------------TP  T         T
| E E E E E E E E   e. E. E  E  E E E E E E E   S S S  S  S S S  S
|-----------------|----------------------------16p0h9h12--------------|
|-----------------|----4----------------------------------------------|
|-----------------|----7---------------------------------16p0h9h12----|
|-----------------|-0-----0-11-10-8-7---------------------------------|
|-4-3-1-0---------|-0-----0-----------9-8-6-8-------------------------|
|---------4-3-1-3-|-0-----0-------------------------------------------|


   T         T                T         T
   S S S  S  S S S  S    Q    S S S  S  S S S  S
|---------------------|------12p0h6h=9-----------|
|-13p0h6h=9-----------|----------------13p0h6h=9-|
|-----------12p0h6h=9-|-10-----------------------|
|---------------------|--9-----------------------|
|---------------------|--8-----------------------|
|---------------------|--------------------------|
|
|  T         T                T         T
|  S S S  S  S S S  S    Q    S S S  S  S S S  S
|---------------------|------16p0h9h12-----------|
|-16p0h9h12-----------|--------------------------|
|-----------16p0h9h12-|-10-------------16p0h9h12-|
|---------------------|--9-----------------------|
|---------------------|--8-----------------------|
|---------------------|--------------------------|


            T          T
   E  E     S S  S  S  S S  S S
|----------12p0h=6h=9------------|
|--------------------------------|
|-10-10---------------12p0h=6h9--|
|--9--9--------------------------|
|--8--8--------------------------|
|--------------------------------|
|
|        T          T
|  E  E  S  S S  S  S  S S  S
|-------16p=0h9h12---------------|
|--------------------------------|
|-10-10------------16p=0h9h12----|
|--9--9--------------------------|
|--8--8--------------------------|
|--------------------------------|


   T         T         T
   S S S  S  S S S  S  S S S  S
|-------------------------------|
|-13p0h6h=9---------------------|
|-----------12p0h6h=9-----------|
|---------------------12p0h6h=9-|
|-------------------------------|
|-------------------------------|
|
|  T         T         T
|  S S S  S  S S S  S  S S S  S
|-------------------------------|
|-16p0h9h12---------------------|
|-----------16p0h9h12-----------|
|---------------------16p0h9h12-|
|-------------------------------|
|-------------------------------|


              PM--------------|
   e.  e.  e  S S S S  S  S S S    e.  e.  e
|-------------------------------|------------------------|
|-------------------------------|------------------------|
|-10--10--10----------10-10-----|-10--10--10-------------|
|--9---9---9------9-9-------9-9-|--9---9---9-------------|
|--8---8---8--8-8---------------|--8---8---8-------------|
|-------------------------------|------------------------|
|
|                                             PM-----|
|  e.  e.  e      H                e.  e.  e  S S  S  S
|-------------------------------|------------------------|
|-------------------------------|------------------------|
|-10--10--10--------------------|-10--10--10------10-10--|
|--9---9---9--------------------|--9---9---9--9-9--------|
|--8---8---8--------------------|--8---8---8-------------|
|-------------------------------|------------------------|


                              |--3--|              |--3--|
   Q           e.  e.  H    S S. S. S. S E E  E  E S. S. S. S E E  E  E
|--------------------------------------------------------------------------|
|--------------------------------------------16-16----------------16-16----|
|-------------10--10--10\--------------------19-19----------------19-19----|
|--------------9---9---9\-----0--0--0--0-0-0-------0--0--0--0-0-0----------|
|--------------8---8---8\-----0--0--0--0-0-0-17-17-0--0--0--0-0-0-17-17----|
|-----------------------------0--0--0--0-0-0-------0--0--0--0-0-0----------|
|
|  PM------------------------------------------------------|
|                             |--3--|              |--3----|
|  S  S  S  S  e.  e.  H    S S. S. S. S E E  E  E S. S. S. S E E  E  E
|--------------------------------------------------------------------------|
|-12-12--------------------------------------16-16----------------16-16----|
|-------10-10-10--10--10\--------------------19-19----------------19-19----|
|--------------9---9---9\-----0--0--0--0-0-0-------0--0--0--0-0-0----------|
|--------------8---8---8\-----0--0--0--0-0-0-17-17-0--0--0--0-0-0-17-17----|
|-----------------------------0--0--0--0-0-0-------0--0--0--0-0-0----------|


  |--3--|                     |--3--|              |--3--|
  S. S. S. S E E  E  E  E  E  S. S. S. S E E  Q    S. S. S. S E E  Q
|------------------------------------------------|----------------------|
|----------------16-16-16-16-----------------16--|----------------16----|
|----------------19-19-19-19-----------------19--|----------------19----|
|-0--0--0--0-0-0--------------0--0--0--0-0-0-----|-0--0--0--0-0-0-------|
|-0--0--0--0-0-0-17-17-17-17--0--0--0--0-0-0-17--|-0--0--0--0-0-0-17----|
|-0--0--0--0-0-0--------------0--0--0--0-0-0-----|-0--0--0--0-0-0-------|
|
| |--3--|                     |--3--|              |--3--|
| S. S. S. S E E  E  E  E  E  S. S. S. S E E  Q    S. S. S. S E E  Q
|------------------------------------------------|----------------------|
|----------------16-16-16-16-----------------16--|----------------16----|
|----------------19-19-19-19-----------------19--|----------------19----|
|-0--0--0--0-0-0--------------0--0--0--0-0-0-----|-0--0--0--0-0-0-------|
|-0--0--0--0-0-0-17-17-17-17--0--0--0--0-0-0-17--|-0--0--0--0-0-0-17----|
|-0--0--0--0-0-0--------------0--0--0--0-0-0-----|-0--0--0--0-0-0-------|


  |--3--|                           |--3--|               |--3--|
  S. S. S. S E E  E  E  E  E  E  E  S. S. S. S E E  E  E  S. S. S. S E E    H.        E  E E  H        E  E  E
|------------------------------------------------------------------------------------14----14------------------------------|
|----------------16-16-16-16-16-16-----------------16-16--------------------------------16----16----------16---------------|
|----------------19-19-19-19-19-19-----------------19-19-------------------19--------------------------19----19------------|
|-0--0--0--0-0-0--------------------0--0--0--0-0-0--------0--0--0--0-0-0---------------------------------------------------|
|-0--0--0--0-0-0-17-17-17-17-17-17--0--0--0--0-0-0-17-17--0--0--0--0-0-0---------------------------------------------------|
|-0--0--0--0-0-0--------------------0--0--0--0-0-0--------0--0--0--0-0-0---------------------------------------------------|
|
| |--3--|                           |--3--|               |--3--|
| S. S. S. S E E  E  E  E  E  E  E  S. S. S. S E E  E  E  S. S. S. S E E    E   E  E  E  E E  E  E  E  E  E  E  E  E  E
|--------------------------------------------------------------------------------------------------------------------------|
|----------------16-16-16-16-16-16-----------------16-16-------------------16--16-16-16-16-16-16-16-16-16-16-16-16-16-16---|
|----------------19-19-19-19-19-19-----------------19-19-------------------19--19-19-19-19-19-19-19-19-19-19-19-19-19-19---|
|-0--0--0--0-0-0--------------------0--0--0--0-0-0--------0--0--0--0-0-0---------------------------------------------------|
|-0--0--0--0-0-0-17-17-17-17-17-17--0--0--0--0-0-0-17-17--0--0--0--0-0-0---17--17-17-17-17-17-17-17-17-17-17-17-17-17-17---|
|-0--0--0--0-0-0--------------------0--0--0--0-0-0--------0--0--0--0-0-0---------------------------------------------------|


   E   E  E  E  E  E   E  E  E   E  E  E   E  E  E   E  E  E   E  E  E  E  q
|-14--------------14----------------------14--------------14--------------14-|
|-----16----16--------16----16-----16--------16-----16--------16----16-------|
|--------19----19--------19-----19----19--------19-----19--------19----19----|
|----------------------------------------------------------------------------|
|----------------------------------------------------------------------------|
|----------------------------------------------------------------------------|
|
|  Q.              Q.        H.        Q.        Q.        Q.
|----------------------------------------------------------------------------|
|----------------------------------------------------------------------------|
|----------------------------------------------------------------------------|
|----------------------------------------------------------------------------|
|----------------------------------------------------------------------------|
|--0---------------0---------0---------0---------0---------0-----------------|


  PM---------------------------|
  S  S  S  S S S  S  S S  S  S  S
|----------------------------------|
|----------------------------------|
|----------------------------------|
|----------------------------------|
|------------8-9-11-12-------------|
|-9-10-12-13-----------9-10-12-13--|
|
| PM---------------------------|
| S  S  S  S S S  S  S S  S  S  S
|----------------------------------|
|----------------------------------|
|----------------------------------|
|----------------------------------|
|------------8-9-11-12-------------|
|-9-10-12-13-----------9-10-12-13--|


  PM-------------------------------------------------|
  S S  S  S S  S  S  S  S  S  S  S S  S  S  S S S  S  S
|-------------------------------------------------------|
|-------------------------------------------------------|
|----------------------10-11-13-14----------------------|
|-----------9-10-12-13----------------------------------|
|-8-9-11-12-----------------------------------8-9-11-12-|
|----------------------------------9-10-12-13-----------|
|
| PM-------------------------------------------------|
| S S  S  S S  S  S  S  S  S  S  S S  S  S  S S S  S  S
|-------------------------------------------------------|
|-------------------------------------------------------|
|----------------------10-11-13-14----------------------|
|-----------9-10-12-13----------------------------------|
|-8-9-11-12-----------------------------------8-9-11-12-|
|----------------------------------9-10-12-13-----------|


          PM----------------|
  e. E. E S  S  S  S S S  S  S
|------------------------------|---|
|----4-------------------------|---|
|----7-------------------------|---|
|-0-----0----------------------|---|
|-0-----0------------8-9-11-12-|---|
|-0-----0-9-10-12-13-----------|---|
|
|         PM----------------|
| e. E. E S  S  S  S S S  S  S
|------------------------------|---|
|----4-------------------------|---|
|----7-------------------------|---|
|-0-----0----------------------|---|
|-0-----0------------8-9-11-12-|---|
|-0-----0-9-10-12-13-----------|---|


          PM------------------------------------------------------------|
  e. E. E S  S  S  S S S  S  S S  S  S  S S S  S  S S  S  S  S  S  S  S  S
|--------------------------------------------------------------------------|
|----4---------------------------------------------------------------------|
|----7---------------------------------------------------------10-11-13-14-|
|-0-----0-------------------------------------------9-10-12-13-------------|
|-0-----0------------8-9-11-12------------8-9-11-12------------------------|
|-0-----0-9-10-12-13-----------9-10-12-13----------------------------------|
|
|         PM------------------------------------------------------------|
| e. E. E S  S  S  S S S  S  S S  S  S  S S S  S  S S  S  S  S  S  S  S  S
|--------------------------------------------------------------------------|
|----4---------------------------------------------------------------------|
|----7---------------------------------------------------------10-11-13-14-|
|-0-----0-------------------------------------------9-10-12-13-------------|
|-0-----0------------8-9-11-12------------8-9-11-12------------------------|
|-0-----0-9-10-12-13-----------9-10-12-13----------------------------------|


  e. E. E
|-----------|
|----4------|
|----7------|
|-0-----0---|
|-0-----0---|
|-0-----0---|
|
| e. E. E
|-----------|
|----4------|
|----7------|
|-0-----0---|
|-0-----0---|
|-0-----0---|


  S S S S S S S S   e. E. E S S S S S S S S S S S S S S S S   e. E. E
|-----------------|-----------------------------------------|------------|
|-----------------|----4------------------------------------|----4-------|
|-----------------|----7------------------------------------|----7-------|
|-----------------|-0-----0---------------------------------|-0-----0----|
|-----------------|-0-----0---------------------------------|-0-----0----|
|-1-1-1-1-1-1-1-1-|-0-----0-1-1-1-1-1-1-1-1-1-1-1-1-1-1-1-1-|-0-----0----|
|
| S S S S S S S S   e. E. E S S S S S S S S S S S S S S S S   e. E. E
|-----------------|-----------------------------------------|------------|
|-----------------|----4------------------------------------|----4-------|
|-----------------|----7------------------------------------|----7-------|
|-----------------|-0-----0---------------------------------|-0-----0----|
|-----------------|-0-----0---------------------------------|-0-----0----|
|-1-1-1-1-1-1-1-1-|-0-----0-1-1-1-1-1-1-1-1-1-1-1-1-1-1-1-1-|-0-----0----|


  PM----------------|
  S  S  S  S S S  S  S
|----------------------|
|----------------------|
|----------------------|
|----------------------|
|------------8-9-11-12-|
|-9-10-12-13-----------|
|
| PM----------------|
| S  S  S  S S S  S  S
|----------------------|
|----------------------|
|----------------------|
|----------------------|
|------------8-9-11-12-|
|-9-10-12-13-----------|


  e. E. E S S S S S S S S S S S S S S S S S S S S S S S S
|----------------------------------------------------------|
|----4-----------------------------------------------------|
|----7-----------------------------------------------------|
|-0-----0--------------------------------------------------|
|-0-----0--------------------------------------------------|
|-0-----0-1-1-1-1-1-1-1-1-1-1-1-1-1-1-1-1-1-1-1-1-1-1-1-1--|
|
| e. E. E S S S S S S S S S S S S S S S S S S S S S S S S
|----------------------------------------------------------|
|----4-----------------------------------------------------|
|----7-----------------------------------------------------|
|-0-----0--------------------------------------------------|
|-0-----0--------------------------------------------------|
|-0-----0-1-1-1-1-1-1-1-1-1-1-1-1-1-1-1-1-1-1-1-1-1-1-1-1--|


          PM-----------------TP        PM-----------------------TP
    E. E. E  Q    3x  E  E E E   E. E. E   E  E  E  E E E E E E E
||----------------||-----------|----------------------------------|----|
||o--------------o||-----------|----------------------------------|----|
||--7--8----11----||-----------|-7--8-----11-11-------------------|----|
||--6--7----10----||-11-10-8-7-|-6--7-----10-10-11-10-8-7---------|----|
||o-5--6-----9\--o||-----------|-5--6------9--9-----------9-8-6-8-|----|
||--------0-------||-----------|-------0--------------------------|----|
|
|----------------------------TP        PM-----------------------TP
|      H     Q    3x  E  E E E   E. E. E   E  E  E  E E E E E E E
||----------------||-----------|----------------------------------|----|
||o--------------o||-----------|----------------------------------|----|
||----------------||-----------|-7--8-----11-11-------------------|----|
||----------------||-11-10-8-7-|-6--7-----10-10-11-10-8-7---------|----|
||o--------------o||-----------|-5--6------9--9-----------9-8-6-8-|----|
||----------------||-----------|-------0--------------------------|----|


   T         T         T         T         T
   S S S  S  S S S  S  S S S  S  S S S  S  S S S  S
|-12p0h6h=9-----------------------------------------|
|---------------------13p0h6h=9---------------------|
|-----------12p0h6h=9-----------12p0h6h=9-----------|
|-----------------------------------------12p0h6h=9-|
|---------------------------------------------------|
|---------------------------------------------------|
|
|  T         T         T         T         T
|  S S S  S  S S S  S  S S S  S  S S S  S  S S S  S
|-16p0h9h12-----------------------------------------|
|---------------------16p0h9h12---------------------|
|-----------16p0h9h12-----------16p0h9h12-----------|
|-----------------------------------------16p0h9h12-|
|---------------------------------------------------|
|---------------------------------------------------|


  e. E. E S S S S S S S S
|----------------------------|
|----4-----------------------|
|----7-----------------------|
|-0-----0--------------------|
|-0-----0--------------------|
|-0-----0-1-1-1-1-1-1-1-1----|
|
| e. E. E S S S S S S S S
|----------------------------|
|----4-----------------------|
|----7-----------------------|
|-0-----0--------------------|
|-0-----0--------------------|
|-0-----0-1-1-1-1-1-1-1-1----|


  e. E. E S S S S S S S S S S S S S S S S
|-----------------------------------------|
|----4------------------------------------|
|----7------------------------------------|
|-0-----0---------------------------------|
|-0-----0---------------------------------|
|-0-----0-1-1-1-1-1-1-1-1-1-1-1-1-1-1-1-1-|
|
| e. E. E S S S S S S S S S S S S S S S S
|-----------------------------------------|
|----4------------------------------------|
|----7------------------------------------|
|-0-----0---------------------------------|
|-0-----0---------------------------------|
|-0-----0-1-1-1-1-1-1-1-1-1-1-1-1-1-1-1-1-|


  e. E. E   S S S S S S S S S S S S S S S S
|--------------------------------------------|
|----4---------------------------------------|
|----7---------------------------------------|
|-0-----0------------------------------------|
|-0-----0------------------------------------|
|-0-----0---1-1-1-1-1-1-1-1-1-1-1-1-1-1-1-1--|
|
| e. E. E S S S S S S S S S S S S S S S S
|--------------------------------------------|
|----4---------------------------------------|
|----7---------------------------------------|
|-0-----0------------------------------------|
|-0-----0------------------------------------|
|-0-----0-1-1-1-1-1-1-1-1-1-1-1-1-1-1-1-1----|


  S S S S S S S S S S S S S S S S S S S S S S S S S S S S S S S S S S S S S S S S
|----------------------------------------------------------------------------------|
|----------------------------------------------------------------------------------|
|----------------------------------------------------------------------------------|
|----------------------------------------------------------------------------------|
|----------------------------------------------------------------------------------|
|-1-1-1-1-1-1-1-1-1-1-1-1-1-1-1-1-1-1-1-1-1-1-1-1-1-1-1-1-1-1-1-1-1-1-1-1-1-1-1-1--|
|
| S S S S S S S S S S S S S S S S S S S S S S S S S S S S S S S S S S S S S S S S
|----------------------------------------------------------------------------------|
|----------------------------------------------------------------------------------|
|----------------------------------------------------------------------------------|
|---------------------------------7-7-7-7-7-7-7-7-7-7-7-7-7-7-7-7-7-7-7-7-7-7-7-7--|
|-6-6-6-6-6-6-6-6-6-6-6-6-6-6-6-6--------------------------------------------------|
|----------------------------------------------------------------------------------|


  PM----|          PM|              PM------|
  E. E. E.  E. E.. S S  Q    E. E.. S S S S S  Q
|--------------------------|----------------------|
|----------------------19--|------------------18--|
|----------------------22--|------------------21--|
|-----------0--0-----------|-0--0-----------------|
|-3--2--0---0--0---0-0-20--|-0--0---0-0-0-0-0-19--|
|-4--3--1---0--0---0-0-----|-0--0---0-0-0-0-0-----|
|
| PM----|          PM|
| E. E. E.  E. E.. S S  Q    E. E.. S S S S S  Q
|--------------------------|----------------------|
|----------------------19--|------------------18--|
|----------------------22--|------------------21--|
|-----------0--0-----------|-0--0-----------------|
|-3--2--0---0--0---0-0-20--|-0--0---0-0-0-0-0-19--|
|-4--3--1---0--0---0-0-----|-0--0---0-0-0-0-0-----|


         PM|             PM------|
  E. E.. S S  Q   E. E.. S S S S S  Q
|---------------|---------------------|
|------------19-|------------------18-|
|------------22-|------------------21-|
|-0--0----------|-0--0----------------|
|-0--0---0-0-20-|-0--0---0-0-0-0-0-19-|
|-0--0---0-0----|-0--0---0-0-0-0-0----|
|
|        PM|             PM------|
| E. E.. S S  Q   E. E.. S S S S S  Q
|---------------|---------------------|
|------------19-|------------------18-|
|------------22-|------------------21-|
|-0--0----------|-0--0----------------|
|-0--0---0-0-20-|-0--0---0-0-0-0-0-19-|
|-0--0---0-0----|-0--0---0-0-0-0-0----|


         PM|        PM|              PM------|
  E. E.. S S E. E.. S S  Q    E. E.. S S S S S  Q
|---------------------------|----------------------|
|-----------------------19--|------------------18--|
|-----------------------22--|------------------21--|
|-0--0-------0--0-----------|-0--0-----------------|
|-0--0---0-0-0--0---0-0-20--|-0--0---0-0-0-0-0-19--|
|-0--0---0-0-0--0---0-0-----|-0--0---0-0-0-0-0-----|
|
|        PM|        PM|              PM------|
| E. E.. S S E. E.. S S  Q    E. E.. S S S S S  Q
|---------------------------|----------------------|
|-----------------------19--|------------------18--|
|-----------------------22--|------------------21--|
|-0--0-------0--0-----------|-0--0-----------------|
|-0--0---0-0-0--0---0-0-20--|-0--0---0-0-0-0-0-19--|
|-0--0---0-0-0--0---0-0-----|-0--0---0-0-0-0-0-----|


         PM|             PM|        PM|
  E. E.. S S  Q   E. E.. S S E. E.. S S
|---------------|-------------------------|
|------------19-|-------------------------|
|------------22-|-------------------------|
|-0--0----------|-0--0-------0--0---------|
|-0--0---0-0-20-|-0--0---0-0-0--0---0-0---|
|-0--0---0-0----|-0--0---0-0-0--0---0-0---|
|
|        PM|             PM|        PM|
| E. E.. S S  Q   E. E.. S S E. E.. S S
|---------------|-------------------------|
|------------19-|-------------------------|
|------------22-|-------------------------|
|-0--0----------|-0--0-------0--0---------|
|-0--0---0-0-20-|-0--0---0-0-0--0---0-0---|
|-0--0---0-0----|-0--0---0-0-0--0---0-0---|


  S S S  H       E   E  E  E   E  E  E  E   E  E  E  E  4x
|-----------||--17--17-17------------------------20-20--||
|-------18--||o-----------18--18-18-17-18--17-15-------o||
|-------21--||------------------------------------------||
|-----------||------------------------------------------||
|-0-0-0-19--||o----------------------------------------o||
|-0-0-0-----||------------------------------------------||
|
| S S S  H       Q.        Q.           H.              4x
|-----------||------------------------------------------||
|-------18--||o----------------------------------------o||
|-------21--||------------------------------------------||
|-----------||---7---------7------------7---------------||
|-0-0-0-19--||o--7---------7------------7--------------o||
|-0-0-0-----||---7---------7------------7---------------||


       E  E  E  E  E  E  E  E  E  E  E  E
|-||--15-15-15----------------------19-19--||---|
|-||o----------18-18-18-17-18-17-15-------o||---|
|-||---------------------------------------||---|
|-||---------------------------------------||---|
|-||o-------------------------------------o||---|
|-||---------------------------------------||---|
|
|      E  E  E  E  E  E  E  E  E  E  E  E
|-||---------------------------------------||---|
|-||o-------------12-12-13-13-12-12-------o||---|
|-||---------9--9--------------------9--9--||---|
|-||---------------------------------------||---|
|-||o-10-10-------------------------------o||---|
|-||---------------------------------------||---|


                                       >
   E  E  E  E  E  E  E  E  E  E  E  E  W  +H   Q  Q  Q  Q  Q  Q    W    +W    +W
|-17-17-17----------------------20-20-20-(20)--------------------------------------------------|
|----------18-18-18-17-18-17-15----------------------------------------------------------------|
|---------------------------------------------11-11-11-10-10-10---10---(10)--(10)--------------|
|----------------------------------------------------------------------------------------------|
|----------------------------------------------9--9--9--8--8--8----8----(8)---(8)--------------|
|----------------------------------------------------------------------------------------------|
|
|  E  E  E  E  E  E  E  E  E  E  E  E  Q   Q   Q  Q  Q  Q  Q  Q Q  Q Q   Q     W   +W   +W
|----------------------------------------------------------------------------------------------|
|-------------12-12-13-13-12-12----------------------------------------------------------------|
|--------9--9--------------------9--9----------------------------------------------------------|
|--------------------------------------1---1---1--1--1--1--1--1-1--1-1---1-----0---(0)--(0)----|
|--9--9--------------------------------1---1---1--1--1--1--1--1-1--1-1---1-----0---(0)--(0)----|
|--------------------------------------1---1---1--1--1--1--1--1-1--1-1---1-----0---(0)--(0)----|


                                                   1.,2.,4.
  S S S S E E  E  E S S S S E E q      S S S S E E Q  4x
|----------------------------------||-----------------||-----|
|-------------16-16----------------||o---------------o||-----|
|-------------19-19----------------||-----------------||-----|
|-0-0-0-0-0-0-------0-0-0-0-0-0-0--||--0-0-0-0-0-0----||-----|
|-0-0-0-0-0-0-17-17-0-0-0-0-0-0-0--||o-0-0-0-0-0-0---o||-----|
|-0-0-0-0-0-0-------0-0-0-0-0-0-0--||--0-0-0-0-0-0----||-----|
|
|     W                 Q       q      S S S S E E Q  4x
|----------------------------------||-----------------||-----|
|----------------------------------||o---------------o||-----|
|----------------------------------||-----------------||-----|
|-------------------------------0--||--0-0-0-0-0-0----||-----|
|-------------------------------0--||o-0-0-0-0-0-0---o||-----|
|-------------------------------0--||--0-0-0-0-0-0----||-----|


                        1.,2.,34.                      1.,2.,3.  4.
  S S E     S S S S E E Q   4x  S S E      S S S S E E  E  E  4x S S E
|-------||------------------||---------||---------------------||--------|
|-------||o----------------o||---------||o-------------16-16-o||--------|
|-------||------------------||---------||--------------19-19--||--------|
|-0-0-0-||--0-0-0-0-0-0-----||--0-0-0--||--0-0-0-0-0-0--------||-0-0-0--|
|-0-0-0-||o-0-0-0-0-0-0----o||--0-0-0--||o-0-0-0-0-0-0-17-17-o||-0-0-0--|
|-0-0-0-||--0-0-0-0-0-0-----||--0-0-0--||--0-0-0-0-0-0--------||-0-0-0--|
|
| S S E     S S S S E E Q   4x  S S E      S S S S E E  E  E  4x S S E
|-------||------------------||---------||---------------------||--------|
|-------||o----------------o||---------||o-------------16-16-o||--------|
|-------||------------------||---------||--------------19-19--||--------|
|-0-0-0-||--0-0-0-0-0-0-----||--0-0-0--||--0-0-0-0-0-0--------||-0-0-0--|
|-0-0-0-||o-0-0-0-0-0-0----o||--0-0-0--||o-0-0-0-0-0-0-17-17-o||-0-0-0--|
|-0-0-0-||--0-0-0-0-0-0-----||--0-0-0--||--0-0-0-0-0-0--------||-0-0-0--|


                1.,2.,3.  4.
    S S S S E E  E  E  4x  S  S E
||---------------------||---------|
||o-------------16-16-o||---------|
||--------------19-19--||---------|
||--0-0-0-0-0-0--------||--0--0-0-|
||o-0-0-0-0-0-0-17-17-o||--0--0-0-|
||--0-0-0-0-0-0--------||--0--0-0-|
|
|   S S S S E E  E  E  4x  E
||---------------------||---------|
||o-------------16-16-o||---------|
||--------------19-19--||---------|
||--0-0-0-0-0-0--------||---------|
||o-0-0-0-0-0-0-17-17-o||---------|
||--0-0-0-0-0-0--------||-12\-----|


                1.,2.,3. 4.                    1.,2.,3.
    S S S S E E +Q    4x S S E     S S S S E E +Q     4x
||--------------------||-------||---------------------||
||o------------------o||-------||o-------------------o||
||--------------------||-------||---------------------||
||--------------------||-------||---------------------||
||o-0-0-0-0-0-0-(0)--o||-0-0-0-||o-0-0-0-0-0-0-(0)---o||
||--1-1-1-1-1-1-(1)---||-1-1-1-||--1-1-1-1-1-1-(1)----||
|
|   S S S S E E +Q    4x S S E     S S S S E E  E  E  4x
||--------------------||-------||---------------------||
||o------------------o||-------||o-------------------o||
||--------------------||-------||---------------------||
||--------------------||-------||---------------------||
||o-0-0-0-0-0-0-(0)--o||-0-0-0-||o-0-0-0-0-0-0--0--0-o||
||--1-1-1-1-1-1-(1)---||-1-1-1-||--1-1-1-1-1-1--1--1--||


  4.
   E          S S S S E E S S E  3x S S S S S S S S S S S S
|---------||---------------------||----------------------------|
|---------||o-------------------o||----------------------------|
|---------||---------------------||----------------------------|
|---------||--0-0-0-0-0-0-0-0-0--||----------------------------|
|---------||o-0-0-0-0-0-0-0-0-0-o||----------------------------|
|-12\-----||--0-0-0-0-0-0-0-0-0--||-1-1-1-1-1-1-1-1-1-1-1-1----|
|
|  S  S E     S S S S E E S S E  3x S S S S S S S S S S S S
|---------||---------------------||----------------------------|
|---------||o-------------------o||----------------------------|
|---------||---------------------||----------------------------|
|---------||--0-0-0-0-0-0-0-0-0--||----------------------------|
|--0--0-0-||o-0-0-0-0-0-0-0-0-0-o||----------------------------|
|--1--1-1-||--0-0-0-0-0-0-0-0-0--||-1-1-1-1-1-1-1-1-1-1-1-1----|


----------------------------------TP
        W          E  E E E E E E E
|-----------------------------------|
|-----------------------------------|
|-----------------------------------|
|-----------------11-10-8-7---------|
|---------------------------9-8-6-8-|
|-----------------------------------|
|
|---------------------------------TP
| E E E E E E E E  E  E E E E E E E
|-----------------------------------|
|-----------------------------------|
|-----------------------------------|
|-----------------11-10-8-7---------|
|-4-3-1-0-------------------9-8-6-8-|
|---------4-3-1-3-------------------|


  S  S  S  S S S  S  S S  S  S  S S S  S  S S  S  S  S  S  S  S  S
|------------------------------------------------------------------|
|------------------------------------------------------------------|
|------------------------------------------------------10-11-13-14-|
|-------------------------------------------9-10-12-13-------------|
|------------8-9-11-12------------8-9-11-12------------------------|
|-9-10-12-13-----------9-10-12-13----------------------------------|
|
| S  S  S  S S S  S  S S  S  S  S S S  S  S S  S  S  S  S  S  S  S
|------------------------------------------------------------------|
|------------------------------------------------------------------|
|------------------------------------------------------10-11-13-14-|
|-------------------------------------------9-10-12-13-------------|
|------------8-9-11-12------------8-9-11-12------------------------|
|-9-10-12-13-----------9-10-12-13----------------------------------|


--------------------------TP   T         T         T         T
  e. E. E  E  E E E E E E E    S S S  S  S S S  S  S S S  S  S S S  S
|---------------------------|-12p0h6h=9----------------------------------|
|----4----------------------|---------------------13p0h6h=9--------------|
|----7----------------------|-----------12p0h6h=9-----------12p0h6h=9----|
|-0-----0-11-10-8-7---------|--------------------------------------------|
|-0-----0-----------9-8-6-8-|--------------------------------------------|
|-0-----0-------------------|--------------------------------------------|
|
|-------------------------TP   T         T         T         T
| e. E. E  E  E E E E E E E    S S S  S  S S S  S  S S S  S  S S S  S
|---------------------------|-16p0h9h12----------------------------------|
|----4----------------------|---------------------16p0h9h12--------------|
|----7----------------------|-----------16p0h9h12-----------16p0h9h12----|
|-0-----0-11-10-8-7---------|--------------------------------------------|
|-0-----0-----------9-8-6-8-|--------------------------------------------|
|-0-----0-------------------|--------------------------------------------|


       T         T
   Q   S S S  S  S S S  S
|-----12p0h6h=9-----------|
|---------------13p0h6h=9-|
|-10----------------------|
|--9----------------------|
|--8----------------------|
|-------------------------|
|
|      T         T
|  Q   S S S  S  S S S  S
|-----16p0h9h12-----------|
|-------------------------|
|-10------------16p0h9h12-|
|--9----------------------|
|--8----------------------|
|-------------------------|


         T         T         T         T         T
   E  E  S S S  S  S S S  S  S S S  S  S S S  S  S S S  S    e.  e.  E
|-------12p0h6h=9-----------------------------------------|------------|
|---------------------------13p0h6h=9---------------------|------------|
|-10-10-----------12p0h6h=9-----------12p0h6h=9-----------|-10--10--10-|
|--9--9-----------------------------------------12p0h6h=9-|--9---9---9-|
|--8--8---------------------------------------------------|--8---8---8-|
|---------------------------------------------------------|------------|
|
|        T         T         T         T         T
|  E  E  S S S  S  S S S  S  S S S  S  S S S  S  S S S  S    e.  e.  E
|-------16p0h9h12-----------------------------------------|------------|
|---------------------------16p0h9h12---------------------|------------|
|-10-10-----------16p0h9h12-----------16p0h9h12-----------|-10--10--10-|
|--9--9-----------------------------------------16p0h9h12-|--9---9---9-|
|--8--8---------------------------------------------------|--8---8---8-|
|---------------------------------------------------------|------------|


  H      e.  e.  E H      e.  e.  e          e.  e.  E E   Q.     e.  e.  e
|-----|----------------|------------------|----------------0---|---------------|
|-----|----------------|------------------|----------------0---|---------------|
|-----|-10--10--10-----|-10--10--10-------|-10--10--10---------|-10--10--10----|
|-----|--9---9---9-----|--9---9---9-------|--9---9---9---------|--9---9---9----|
|-----|--8---8---8-----|--8---8---8-------|--8---8---8---------|--8---8---8----|
|-----|----------------|------------------|--------------------|---------------|
|
| H      e.  e.  E H      e.  e.  e  H       e.  e.  E   H        e.  e.  e
|-----|----------------|------------------|--------------------|---------------|
|-----|----------------|------------<5>---|--------------------|---------------|
|-----|-10--10--10-----|-10--10--10-<5>---|-10--10--10---------|-10--10--10----|
|-----|--9---9---9-----|--9---9---9-------|--9---9---9---------|--9---9---9----|
|-----|--8---8---8-----|--8---8---8-------|--8---8---8---------|--8---8---8----|
|-----|----------------|------------------|--------------------|---------------|


   T        T
   S S S S  S S S S    e.  e.  e          H
|-12p0h6h9----------|----------------------------------|
|----------13p0h6h9-|----------------------------------|
|-------------------|-10--10--10-----------------------|
|-------------------|--9---9---9-----------------------|
|-------------------|--8---8---8-----------------------|
|-------------------|----------------------------------|
|
|                                 T          T
|      H               e.  e.  e  S S  S  S  S S  S  S
|-------------------|------------16p0h10h13------------|
|-------------------|-----------------------16p0h10h13-|
|-------------------|-10--10--10-----------------------|
|-------------------|--9---9---9-----------------------|
|-------------------|--8---8---8-----------------------|
|-------------------|----------------------------------|


              T         T
   e.  e.  e  S S S  S  S S S  S
|------------12p0h6h=9------------|
|---------------------------------|
|-10--10--10-----------12p0h6h=9--|
|--9---9---9----------------------|
|--8---8---8----------------------|
|---------------------------------|
|
|  e.  e.  e  S S S  S  S S S  S
|------------16p0h9h12------------|
|---------------------------------|
|-10--10--10-----------16p0h9h12--|
|--9---9---9----------------------|
|--8---8---8----------------------|
|---------------------------------|


   T         T
   S S S  S  S S S  S  W       e.  e.  H..
|---------------------------------------------|----|
|-13p0h6h=9-----------------------------------|----|
|-----------12p0h6h=9--9------10--10--10\-----|----|
|------------------------------9---9---9\-----|----|
|----------------------7-------8---8---8\-----|----|
|---------------------------------------------|----|
|
|  T         T
|  S S S  S  S S S  S  W       e.  e.  H..
|---------------------------------------------|----|
|-16p0h9h12-----------------------------------|----|
|-----------16p0h9h12--9------10--10--10\-----|----|
|------------------------------9---9---9\-----|----|
|----------------------7-------8---8---8\-----|----|
|---------------------------------------------|----|


Duration Legend
---------------
W - whole; H - half; Q - quarter; E - 8th; S - 16th; T - 32nd; X - 64th; a - acciaccatura
+ - note tied to previous; . - note dotted; .. - note double dotted
Uncapitalized letters represent notes that are staccato (1/2 duration)
Irregular groupings are notated above the duration line
Duration letters will always appear directly above the note/fret number it represents the
duration for.  Duration letters with no fret number below them represent rests.  Multi-
bar rests are notated in the form Wxn, where n is the number of bars to rest for.  Low
melody durations appear below the staff

Tablature Legend
----------------
 h   - hammer-on
 p   - pull-off
 b   - bend
 pb  - pre-bend
 r   - bend release (if no number after the r, then release immediately)
 /\  - slide into or out of (from/to "nowhere")
 s   - legato slide
 S   - shift slide
  - natural harmonic
[n]  - artificial harmonic
n(n) - tapped harmonic
 ~   - vibrato
 tr  - trill
 T   - tap
 TP  - trem. picking
 PM  - palm muting
\n/  - tremolo bar dip; n = amount to dip
 \n  - tremolo bar down
 n/  - tremolo bar up
/n\  - tremolo bar inverted dip
 =   - hold bend; also acts as connecting device for hammers/pulls
 <>  - volume swell (louder/softer)
 x   - on rhythm slash represents muted slash
 o   - on rhythm slash represents single note slash

Misc Legend
-----------
 |  - bar
||  - double bar
||o - repeat start
o|| - repeat end
*|  - double bar (ending)
 :  - bar (freetime)
 $  - Segno
 &  - Coda
Tempo markers -  = BPM(8/16=s8/s16), where s8 = swing 8ths, s16 = swing 16ths


***************************************************************************************
* Generated using Power Tab Editor by Brad Larsen - http://powertab.guitarnetwork.org *
***************************************************************************************
comments
We did not receive enough feedback on this tab! Please rate:
print report bad tab
1 2 3 4 5
3 comments total.
0 reply
m3tz wrote on March 8 2007, 11:16 pm

"All credit goes to m3tz, this is just the ASCII version of his PowerTab for anyone just
for a tab."

Cheers for that!
Centurion fan?

+1 reply
Centurion wrote on March 10 2007, 06:53 am

Definately. How'd you guess?

0 reply
tdrules wrote on November 27 2007, 03:07 pm

thank god a decent architects tab!!!

I want to post or [tab]
guest
You may want to rate the tab now too:
select rating
Please do not post tabs as comments. Select "correction" instead!