Oops, an error
Loading. Please wait.

505 Tab

ver2
ver2

Whole song

More versions @911Tabs.com
22,697 views 99 this week
6 commentsread comments
1 2 3 4 5
accurate
x 7
Autoscroll
+/-
esc
set tempo
stop
Contributor
WARNING: You are trying to view
                                    content from Ultimate-Guitar.com
                                    in an unauthorized application,
                                    which is prohibited.

                                    Please use an official Ultimate
                                    Guitar Tabs application for iPhone,
                                    iPad or Android to access legitimate
                                    chords, guitar, bass, and drum tabs
                                    from Ultimate-Guitar.com database.

                                    Type "ultimate guitar tabs" in Apple
                                    App Store's or Android Market's
                                    search to find the application.
Chords used:

    Dm*  Em* (Dm   Em)   *First Guitar Chords (Second Guitar Chords)
e|---5----7---10---12--|
B|---6----8---10---12--|
G|---7----9---10---12--|
D|---7----9---12---14--|
A|---5----7------------|
E|---X----X------------|

I'm going back to 505 if it's a 7 hours flight or a 45 minute drive
In my imagination you're waiting lying on your side with your hands between your thighs

Each chord is one strum

Dm Em

Dm                           Em
Stop and wait a sec when you look at me like that
           Dm                       Em
My darling what did you expect? I probably still adore you
          Dm                         Em
With your hands around my neck Or I did last time I checked

Dm Em

    Dm           Dsus4        Em                Esus4                  Dm
I'm not shy of a spark The knife twists at the thought that I should fall
             Dsus4
short of the mark
   Em            Esus4              Dm          Dsus4
Frightened by the bite no it's no harsher than the bark
   Em          Esus4            Dm             Dsus4     Em
A middle of adventure, such a perfect place to start

e|-12-10-8-7-5--|  riff 1
B|-----------6--|
G|-----------7--|
D|--------------|         Repeat the riff at flight, imagination & thighs
A|--------------|
E|--------------|


           Dm                   Em
I'm going back to 505 If it's a 7 hour flight
     Dm                 Em                             Dm           Esus4
Or a 45 minute drive In my imagination you're waiting lying on your side
           Em                  Dm      Em
With your hands between your thighs


e|---12-10-8-7--(Drums Stop)--------|
B|----------------------------------|
G|----------------------------------|
D|----------------------------------|
A|----------------------------------|
E|----------------------------------|

e|---------------------------------------------------------------|
B|---------------------------------------------------------------|
G|---------------------------------------------------------------|
D|--14--12--10--9--7--9--10--10101010--9-9999/14--14141414-------|
A|---------------------------------------------------------------|

e|----------------------------------------------------------10---|
B|----------------------------------------------------------10---|
G|----------------------------------------------------------12---|
D|--14--12--10--9--7--9--10--10101010--9-9999/14--14141414--12---|
A|---------------------------------------------------------------|
E|---------------------------------------------------------------|


Start strumming the chords now

                Dm & Dsus4*                *Continue playing these chords*
But I crumble completely when you cry      *along with rythym guitars chords*
    Em & Esus4*                         Dm
It seems like once again you've had to greet me with goobye
     Em                         Dm
I'm always just about to go and spoil the surprise
         Em                            Dm   Em
Take my hands off of your eyes too soon

           Dm                   Em
I'm going back to 505 If it's a 7 hour flight
     Dm                 Em                             Dm
Or a 45 minute drive In my imagination you're waiting lying on your side
           Em                              Dm     Em
With your hands between your thighs And a smile

e|-------------------------------------------------------------|
B|----17-15-13-12-10-12-13-13131313-12-12121212/17-17171717----|
G|-------------------------------------------------------------| (x4)
D|-------------------------------------------------------------|
A|-------------------------------------------------------------|
E|-------------------------------------------------------------|

e|-------------------------------------------------------------|
B|-------------------------------------------------------------|
G|-------------------------------------------------------------|
D|--14--12--10--9--7--9--10--10101010--9-9999/14--14141414-----|
A|-------------------------------------------------------------|
E|-------------------------------------------------------------|

e|-----------------------------------------------10------------|
B|-----------------------------------------------10------------|
G|-----------------------------------------------12------------|
D|--14--12--10--9--7--9--10--10101010--9-9999/14-12------------|
A|-------------------------------------------------------------|
E|-------------------------------------------------------------|

Thanks to jazzvi for the original tab but there were some mistakes and it didnt have the 
Guitar chords so i thought i would make another tab for a brilliant song
6 comments total. Showing first comments.
0 reply
mellon_c wrote on May 13 2007, 01:07 pm

Good tab, however i think the 2nd chords could also be

Dm* Em*(Dsus4 Esus4) *First Guitar Chords (Second Guitar Chords)
e|---5----7------------|
B|---6----8---15---17--|
G|---7----9---14---16--|
D|---7----9---15---17--|
A|---5----7------------|
E|---X----X------------|

0 reply
mellon_c wrote on May 13 2007, 01:09 pm

Actually

Dm* Em*(Dsus4 Esus4) *First Guitar Chords (Second Guitar Chords)
e|---5----7---10---12--|
B|---6----8---10---12--|
G|---7----9---10---12--|
D|---7----9---12---14--|
A|---5----7------------|
E|---X----X------------|

0 reply
keneticshark24 wrote on May 24 2007, 01:42 pm

Great tab.

10
10
12
12 still doesn't right to me, but oh well. Probably just me, right? >_>;

Thanks.

I want to post or [tab]
guest
You may want to rate the tab now too:
select rating
Please do not post tabs as comments. Select "correction" instead!