Oops, an error
Loading. Please wait.

A Certain Romance Tab

ver2
ver2

Solo

Whole song

Interactive

More versions @911Tabs.com
121,553 views 372 this week
6 commentsread comments
1 2 3 4 5
excellent!
x 25
Autoscroll
+/-
esc
set tempo
stop
Contributor
Hey! There's an official Ultimate Guitar app which is ideal
for learning songs when you're away from computer. Get the app
WARNING: You are trying to view
                                    content from Ultimate-Guitar.com
                                    in an unauthorized application,
                                    which is prohibited.

                                    Please use an official Ultimate
                                    Guitar Tabs application for iPhone,
                                    iPad or Android to access legitimate
                                    chords, guitar, bass, and drum tabs
                                    from Ultimate-Guitar.com database.

                                    Type "ultimate guitar tabs" in Apple
                                    App Store's or Android Market's
                                    search to find the application.
----------------------------------------------------------------------------
                          A Certain Romance - Arctic Monkeys
----------------------------------------------------------------------------


 

Gtr I (E A D G B E) - 'James'
Gtr II (E A D G B E) - 'Alex T'
Gtr III (E A D G B E) - 'Fill in'





 Introduction/Drums
  Q=140
 4/4
  Gtr I
  Wx4
|--------|
|--------|
|--------|
|--------|
|--------|
|--------|


    N.C.                B5
    Gtr I
    |-3-| |-3-|         |-3-|
    Q Q Q Q Q Q  8x     q q q +Q      S S E  8x
||---------------||-||-----------------------||
||o-------------o||-||o---------------------o||
||----7-9---7-9--||-||-----------------------||
||--9-----9------||-||--9-9-9-(9)-----x-x-x--||
||o-------------o||-||o-9-9-9-(9)-----x-x-x-o||
||---------------||-||--7-7-7-(7)-----x-x-x--||
|
|   Gtr II
|   |-3-| |-3-|         |-3-|
|   Q Q Q Q Q Q  8x     q q q +E  S S S S E  8x
||---------------||-||-----------------------||
||o-------------o||-||o---------------------o||
||----7-9---7-9--||-||-----------------------||
||--9-----9------||-||--9-9-9-(9)-----x-x-x--||
||o-------------o||-||o-9-9-9-(9)-x-x-x-x-x-o||
||---------------||-||--7-7-7-(7)-x-x-x-x-x--||


  Q=137
  B/F#
    H       H              H          H
|-^11------------------|-^11---------------------|
|-^12------------------|-^12---------------------|
|-^11------------------|-^11---------------------|
|----------------------|-------------------------|
|----------------------|-------------------------|
|----------------------|-------------------------|
|
|   Q   Q   E  E  E  E     E  E  E  Q    E  E  E
|------11--11-11-11-11-|--14-14-14-11---11-11-11-|
|-^12--12--------------|-------------------------|
|-^11------------------|-------------------------|
|----------------------|-------------------------|
|----------------------|-------------------------|
|----------------------|-------------------------|


    H          H             E  E  E  E  E  Q.
|-^11---------------------|-11-11-11-11-11---------|
|-^12---------------------|-12-12-12-12-12---------|
|-^11---------------------|-11-11-11-11-11---------|
|-------------------------|------------------------|
|-------------------------|------------------------|
|-------------------------|------------------------|
|
|   e  E  E  Q    E  E  E    E  E  E  E  e  E   Q
|--16-16-16-11---11-11-11S|=18-18-18-18-18-16--14--|
|-------------------------|------------------------|
|-------------------------|------------------------|
|-------------------------|------------------------|
|-------------------------|------------------------|
|-------------------------|------------------------|


  E/B
   H        H             H        H
|-^7-------------------|-^7-------------------|
|-^9-------------------|-^9-------------------|
|-^9-------------------|-^9-------------------|
|-^9-------------------|-^9-------------------|
|----------------------|----------------------|
|----------------------|----------------------|
|
|  Q    Q   E  E  E  E    Q   E  Q    E  E  E
|----------------------|----------------------|
|-----^12--12-12-12-12-|-14--12------14-12----|
|-13--^11--------------|--------13---------13-|
|----------------------|----------------------|
|----------------------|----------------------|
|----------------------|----------------------|


                         Em
    W                     E  E  E  Q     E  Q
|----------------------|--7--7--7--7-------------|
|----------------------|--8--8--8--------8-------|
|----------------------|--9--9--9-----------9----|
|----------------------|-------------------------|
|----------------------|-------------------------|
|----------------------|-------------------------|
|
|  +Q    Q.    E  E  E    E  E  E  E  E  E  E  E
|----------------------|-------------------------|
|-------12----12-12-12-|-------------------------|
|-(13)-----------------|-12-12-12-12-12-12-12-12-|
|----------------------|-------------------------|
|----------------------|-------------------------|
|----------------------|-------------------------|


  B/F#
    H       H              H          H
|-^11------------------|-^11---------------------|
|-^12------------------|-^12---------------------|
|-^11------------------|-^11---------------------|
|----------------------|-------------------------|
|----------------------|-------------------------|
|----------------------|-------------------------|
|
|   Q   Q   E  E  E  E     E  E  E  Q    E  E  E
|------11--11-11-11-11-|--14-14-14-11---11-11-11-|
|-^12--12--------------|-------------------------|
|-^11------------------|-------------------------|
|----------------------|-------------------------|
|----------------------|-------------------------|
|----------------------|-------------------------|


       H          H             E  E  E  E  H
|----^11---------------------|-11-11-11-11-11---------|
|----^12---------------------|-12-12-12-12-12---------|
|----^11---------------------|-11-11-11-11-11---------|
|----------------------------|------------------------|
|----------------------------|------------------------|
|----------------------------|------------------------|
|
|  a   e  E  E  Q    E  E  E    E  E  E  E  e  E  Q
|-15--16-16-16-11---11-11-11S|=18-18-18-18-18-16-14---|
|----------------------------|------------------------|
|----------------------------|------------------------|
|----------------------------|------------------------|
|----------------------------|------------------------|
|----------------------------|------------------------|


  E/B
   H       H             H        H
|-^7------------------|-^7-------------------|
|-^9------------------|-^9-------------------|
|-^9------------------|-^9-------------------|
|-^9------------------|-^9-------------------|
|---------------------|----------------------|
|---------------------|----------------------|
|
|  Q   Q   E  E  E  E    Q   E  Q    E  E  E
|---------------------|----------------------|
|-----12--12-12-12-12-|-14--12------14-12----|
|-13------------------|--------13---------13-|
|---------------------|----------------------|
|---------------------|----------------------|
|---------------------|----------------------|


                          G/E
    H        H             E  E  E  Q     E  Q
|-^-7-------------------|--7--7--7--7-----9--7----|
|-^-9-------------------|--8--8--8----------------|
|-^-9-------------------|--9--9--9----------------|
|-^-9-------------------|-------------------------|
|-----------------------|-------------------------|
|-----------------------|-------------------------|
|
|  +Q    Q.     E  E  E    E  E  E  E  E  E  E  E
|-----------------------|-------------------------|
|-------12-----12-12-12-|-------------------------|
|-(13)------------------|-12-12-12-12-12-12-12-12-|
|-----------------------|-------------------------|
|-----------------------|-------------------------|
|-----------------------|-------------------------|


  Q=144
       B/F#
    E    E    E   E  E  E  E  E   E  E  E  E  E  E  E  E
|-------11-------11----11----11-|---11----11----11----11-|
|-------12-------12----12----12-|---12----12----12----12-|
|-------11-------11----11----11-|---11----11----11----11-|
|-------------------------------|------------------------|
|-------------------------------|------------------------|
|-------------------------------|------------------------|
|
|   E    E    E   E  E  E  E  E   E  E  E  E  E  E  E  E
|-------------------------------|------------------11-11-|
|-(12)-(12)-(12)-12-12-12-12-12-|---12-12-12-12-12-12-12-|
|--11---11---11--11-11-11-11-11-|---11-11-11-11-11-11-11-|
|-------------------------------|------------------------|
|-------------------------------|------------------------|
|-------------------------------|------------------------|


  E  E  E  E  E  E  E  E   E  E  E  E  E  E  +S   S  S  S
|---11----11----11----11-|---11----11----11-(11)-11-11-11-|
|---12----12----12----12-|---12----12----12-(12)-12-12-12-|
|---11----11----11----11-|---11----11----11-(11)-11-11-11-|
|------------------------|--------------------------------|
|------------------------|--------------------------------|
|------------------------|--------------------------------|
|
| E  E  E  E  E  E  Q      E  E  E  E  E  E   E      E
|------------------------|-------------------11-----11----|
|---12-12-12-12-12-12----|---12-12-12-12-12--12-----12----|
|---11-11-11-11-11-11----|---11-11-11-11-11--11-----11----|
|------------------------|--------------------------------|
|------------------------|--------------------------------|
|------------------------|--------------------------------|


    E
  E E E  E E E E E   E  E E E E E E E   E E E E E E E E   E E E E E E E E
|---7----7---7---7-|----7---7---7---7-|---7---7---7---7-|---7---7---7---7-|
|---9----9---9---9-|----9---9---9---9-|---9---9---9---9-|---9---9---9---9-|
|---9----9---9---9-|----9---9---9---9-|---9---9---9---9-|---9---9---9---9-|
|------------------|------------------|-----------------|-----------------|
|------------------|------------------|-----------------|-----------------|
|------------------|------------------|-----------------|-----------------|
|
| E E Q.     E Q     H.           E E   E E E E E E E E   E Q   Q   E Q
|---7-7------------|--------------7-7-|-7-7-7-7-7-7-7-7-|-7-7---7---7-7---|
|---9-9------------|--------------9-9-|-9-9-9-9-9-9-9-9-|-8-9---9---9-9---|
|---9-9------------|--------------9-9-|-9-9-9-9-9-9-9-9-|-9-9---9---9-9---|
|------------------|------------------|-----------------|-9-9---9---9-9---|
|------------------|------------------|-----------------|-----------------|
|------------------|------------------|-----------------|-----------------|


 Oh, they might wear . . . .
    B/F#
  E  E E  E E  E E  E   E  E E  E E  E E  E
|---11---11---11---11-|---11---11---11---11-|
|---12---12---12---12-|---12---12---12---12-|
|---11---11---11---11-|---11---11---11---11-|
|---------------------|---------------------|
|---------------------|---------------------|
|---------------------|---------------------|
|
| Q    Q    H           W
|-7-------------------|---------------------|
|-9-------------------|---------------------|
|-9-------------------|---------------------|
|-9-------------------|---------------------|
|---------------------|---------------------|
|---------------------|---------------------|


  E  E E  E E  E E  E   E  E E  E E  E  +S   S  S  S
|---11---11---11---11-|---11---11---11-(11)-11-11-11-|
|---12---12---12---12-|---12---12---12-(12)-12-12-12-|
|---11---11---11---11-|---11---11---11-(11)-11-11-11-|
|---------------------|------------------------------|
|---------------------|------------------------------|
|---------------------|------------------------------|
|
| W                     W
|---------------------|------------------------------|
|---------------------|------------------------------|
|---------------------|------------------------------|
|---------------------|------------------------------|
|---------------------|------------------------------|
|---------------------|------------------------------|


    E
  E E E E E E E E   E E E E E E E E   E E E E E E E E   E E E E E E E E
|---7---7---7---7-|---7---7---7---7-|---7---7---7---7-|---7---7---7---7-|
|---9---9---9---9-|---9---9---9---9-|---9---9---9---9-|---9---9---9---9-|
|---9---9---9---9-|---9---9---9---9-|---9---9---9---9-|---9---9---9---9-|
|-----------------|-----------------|-----------------|-----------------|
|-----------------|-----------------|-----------------|-----------------|
|-----------------|-----------------|-----------------|-----------------|
|
| H       H         W                 W                 W
|-7---------------|-----------------|-----------------|-----------------|
|-9---------------|-----------------|-----------------|-----------------|
|-9---------------|-----------------|-----------------|-----------------|
|-9---------------|-----------------|-----------------|-----------------|
|-----------------|-----------------|-----------------|-----------------|
|-----------------|-----------------|-----------------|-----------------|


 There's the truth...
     B/F#
   E  E E  E E  E E  E   E  E E  E E  E E  E
|----11---11---11---11-|---11---11---11---11-|
|----12---12---12---12-|---12---12---12---12-|
|----11---11---11---11-|---11---11---11---11-|
|----------------------|---------------------|
|----------------------|---------------------|
|----------------------|---------------------|
|
|  W                     W
|-11-------------------|---------------------|
|-12-------------------|---------------------|
|-11-------------------|---------------------|
|----------------------|---------------------|
|----------------------|---------------------|
|----------------------|---------------------|


  E  E  E  E E  E E  E   E  E E  E E  E  +S   S  S  S
|---11----11---11---11-|---11---11---11-(11)-11-11-11-|
|---12----12---12---12-|---12---12---12-(12)-12-12-12-|
|---11----11---11---11-|---11---11---11-(11)-11-11-11-|
|----------------------|------------------------------|
|----------------------|------------------------------|
|----------------------|------------------------------|
|
| E  Q.      H           W
|-7--7-----------------|------------------------------|
|-7--7-----------------|------------------------------|
|-8--8-----------------|------------------------------|
|-9--9-----------------|------------------------------|
|----------------------|------------------------------|
|----------------------|------------------------------|


    E
  E E E E E E E E   E E E E E E E E   E E E E E E E E   E E E E E E E E
|---7---7---7---7-|---7---7---7---7-|---7---7---7---7-|---7---7---7---7-|
|---9---9---9---9-|---9---9---9---9-|---9---9---9---9-|---9---9---9---9-|
|---9---9---9---9-|---9---9---9---9-|---9---9---9---9-|---9---9---9---9-|
|-----------------|-----------------|-----------------|-----------------|
|-----------------|-----------------|-----------------|-----------------|
|-----------------|-----------------|-----------------|-----------------|
|
| H       H         W                 W                 W
|-7---------------|-----------------|-----------------|-----------------|
|-9---------------|-----------------|-----------------|-----------------|
|-9---------------|-----------------|-----------------|-----------------|
|-9---------------|-----------------|-----------------|-----------------|
|-----------------|-----------------|-----------------|-----------------|
|-----------------|-----------------|-----------------|-----------------|


 You know .. . .
  E5      F#5        B5                  B5
  Q.    E +E  E Q    Q.     E +E  E Q    Q.     E +E  E Q    Q.     E +E  E Q
|-4-----4-(4)-2----|--------4-(4)-2----|--------4-(4)-2----|--------4-(4)-2----|
|---------------4--|-2--------------4--|----------------4--|------------4--|
|------------------|-------------------|-4-----------------|-4-------------|
|------------------|-------------------|-------------------|---------------|
|------------------|-------------------|-------------------|---------------|
|------------------|-------------------|-------------------|---------------|
|
| Gtr II
| Q   Q    Q    Q    Q   H.              Q   H.              Q   H.
|------------------|-------------------|-------------------|---------------|
|------------------|-------------------|-------------------|---------------|
|-9-------11-------|-------------------|-------------------|---------------|
|-9-------11-------|-9-----------------|-9-----------------|-9-------------|
|-7--------9-------|-9-----------------|-9-----------------|-9-------------|
|------------------|-7-----------------|-7-----------------|-7-------------|


                    G#5                 B5             F#5
  Q.     E E Q.     H.        +E  S S   H.        Q    W
|-----------------|-------------------|--------------|----------|
|--------2-2-4----|-----------------2-|-4---------4--|----------|
|-4---------------|-1---------(1)-4---|--------------|----------|
|-----------------|-------------------|--------------|-4--------|
|-----------------|-------------------|--------------|----------|
|-----------------|-------------------|--------------|----------|
|
| Q   H.            Q   H.              Q   H.         Q  H.
|-----------------|-------------------|--------------|----------|
|-----------------|-------------------|--------------|----------|
|-----------------|-------------------|--------------|----------|
|-9---------------|-6-----------------|-9------------|-4--------|
|-9---------------|-6-----------------|-9------------|-4--------|
|-7---------------|-4-----------------|-7------------|-2--------|


 Over there, there's. ..
  B/F#
   E  E E  E E  E E  E   E  E E  E E  E E  E
|----11---11---11---11-|---11---11---11---11-|
|----12---12---12---12-|---12---12---12---12-|
|----11---11---11---11-|---11---11---11---11-|
|----------------------|---------------------|
|----------------------|---------------------|
|----------------------|---------------------|
|
|  W                     W
|-11-------------------|---------------------|
|-12-------------------|---------------------|
|-11-------------------|---------------------|
|----------------------|---------------------|
|----------------------|---------------------|
|----------------------|---------------------|


  E  E E  E E  E E  E   E  E  E  E  E      E   +S   S  S  S
|---11---11---11---11-|---11----11--------11--(11)-11-11-11---|
|---12---12---12---12-|---12----12--------12--(12)-12-12-12---|
|---11---11---11---11-|---11----11--------11--(11)-11-11-11---|
|---------------------|---------------------------------------|
|---------------------|---------------------------------------|
|---------------------|---------------------------------------|
|
| W                     Q     E  E  S  S  +Q.
|---------------------|------11-11-11-11-(11)-----------------|
|---------------------|------12-12-12-12-(12)-----------------|
|---------------------|------11-11-11-11-(11)-----------------|
|---------------------|---------------------------------------|
|---------------------|---------------------------------------|
|---------------------|---------------------------------------|


    E
  E E E    E   E  E   E E   E E E E E E E E
|---7------7------7-----7-|---7---7---7---7-|
|---9------9------9-----9-|---9---9---9---9-|
|---9------9------9-----9-|---9---9---9---9-|
|-------------------------|-----------------|
|-------------------------|-----------------|
|-------------------------|-----------------|
|
| E E S S +E  +E  S S Q     E E E E Q   Q
|-7-7-7-7-(7)-----7-7-----|-----7-7---------|
|-9-9-9-9-(9)-(9)-9-9-----|-9-9-----9-------|
|-9-9-9-9-(9)-(9)-9-9-----|-------------9---|
|-9-9-9-9-(9)-(9)-9-9-----|-----------------|
|-------------------------|-----------------|
|-------------------------|-----------------|


  E E E E E E E E   E E E E E E E E
|---7---7---7---7-|---7---7---7---7-|
|---9---9---9---9-|---9---9---9---9-|
|---9---9---9---9-|---9---9---9---9-|
|-----------------|-----------------|
|-----------------|-----------------|
|-----------------|-----------------|
|
| Q   Q   H         E E E E E E E E
|-----7-----------|---7-7-7-7-7-7-7-|
|-9---------------|---9-9-9-9-9-9-9-|
|---------9-------|---9-9-9-9-9-9-9-|
|-----------------|-----------------|
|-----------------|-----------------|
|-----------------|-----------------|


 Don't get me wrong...
    B/F#
  E  E E   E E  E E  E   E  E  E  E  E  E  E  E
|---11----11---11---11-|---11----11----11----11-|
|---12----12---12---12-|---12----12----12----12-|
|---11----11---11---11-|---11----11----11----11-|
|----------------------|------------------------|
|----------------------|------------------------|
|----------------------|------------------------|
|
| E  E H.                Q     E  E  E  E  Q
|-7--------------------|------------11-11-------|
|-7--------------------|------12-12-------12----|
|----------------------|------------------------|
|----------------------|------------------------|
|----------------------|------------------------|
|----------------------|------------------------|


   E  E  E  E E  E E  E   E  E  E  E  E      E   +S   S  S  S
|----11----11---11---11-|---11----11--------11--(11)-11-11-11---|
|----12----12---12---12-|---12----12--------12--(12)-12-12-12---|
|----11----11---11---11-|---11----11--------11--(11)-11-11-11---|
|-----------------------|---------------------------------------|
|-----------------------|---------------------------------------|
|-----------------------|---------------------------------------|
|
|  E  E  H         Q      Q     E  E  S  S  +Q.
|-11-11-11--------------|------11-11-11-11-(11)-----------------|
|-12-12-12--------------|------12-12-12-12-(12)-----------------|
|-11-11-11--------------|------11-11-11-11-(11)-----------------|
|-----------------------|---------------------------------------|
|-----------------------|---------------------------------------|
|-----------------------|---------------------------------------|


    E
  E E E    E   E  E  E E   E E E E E E E E
|---7------7------7----7-|---7---7---7---7-|
|---9------9------9----9-|---9---9---9---9-|
|---9------9------9----9-|---9---9---9---9-|
|------------------------|-----------------|
|------------------------|-----------------|
|------------------------|-----------------|
|
| E E S S +E  +E  Q.       W
|-7-7-7-7-(7)------------|-----------------|
|-9-9-9-9-(9)-(9)--------|-----------------|
|-9-9-9-9-(9)-(9)--------|-----------------|
|-9-9-9-9-(9)-(9)--------|-----------------|
|------------------------|-----------------|
|------------------------|-----------------|


  E E E E E E E E   E E E E E E  Q
|---7---7---7---7-|---7---7---7------|
|---9---9---9---9-|---9---9---9------|
|---9---9---9---9-|---9---9---9------|
|-----------------|------------------|
|-----------------|------------------|
|-----------------|------------------|
|
| E E H       Q     H       E Q.
|-7-7-7-----------|---------7-7------|
|-9-9-9-----------|---------9-9------|
|-9-9-9-----------|---------9-9------|
|-----------------|------------------|
|-----------------|------------------|
|-----------------|------------------|


 Don't you know ...
  E5      F#5        B5                  B5                  B5
  Q.    E +E  E Q    Q.     E +E  E Q    Q.     E +E  E Q    Q.    E +E  E Q
|-4-----4-(4)-2----|--------4-(4)-2----|--------4-(4)-2----|-------4-(4)-2-|
|---------------4--|-2--------------4--|----------------4--|-----------4---|
|------------------|-------------------|-4-----------------|-4-------------|
|------------------|-------------------|-------------------|---------------|
|------------------|-------------------|-------------------|---------------|
|------------------|-------------------|-------------------|---------------|
|
| Q   Q    Q    Q    Q   H.              Q   H.              Q   H.
|------------------|-------------------|-------------------|---------------|
|------------------|-------------------|-------------------|---------------|
|-9-------11-------|-------------------|-------------------|---------------|
|-9-------11-------|-------------------|-9-----------------|-9-------------|
|-7--------9-------|-9-----------------|-9-----------------|-9-------------|
|------------------|-7-----------------|-7-----------------|-7-------------|


  B5              G#5                 B5             F#5
  Q  Q   E Q.     H.        +E  S S   H.        Q    W
|---------------|-------------------|--------------|----------|
|----2---2-4----|-----------------2-|-4---------4--|----------|
|-4-------------|-1---------(1)-4---|--------------|----------|
|---------------|-------------------|--------------|-4--------|
|---------------|-------------------|--------------|----------|
|---------------|-------------------|--------------|----------|
|
| Q  H.           Q   H.              Q   H.         Q  H.
|---------------|-------------------|--------------|----------|
|---------------|-------------------|--------------|----------|
|---------------|-------------------|--------------|----------|
|-9-------------|-6-----------------|-9------------|-4--------|
|-9-------------|-6-----------------|-9------------|-4--------|
|-7-------------|-4-----------------|-7------------|-2--------|


 I said no ...
  E/B                                    B
  Q.     E +E  E  Q    Q.   E +E  E Q    Q.     E +E  E  Q    Q.   E +E  E Q
|-4------4-(4)-2-----|------4-(4)-2----|--------4-(4)-2-----|------4-(4)-2-|
|-----------------4--|-2------------4--|-----------------4--|-----------4--|
|--------------------|-----------------|-4------------------|-4------------|
|--------------------|-----------------|--------------------|--------------|
|--------------------|-----------------|--------------------|--------------|
|--------------------|-----------------|--------------------|--------------|
|
| |-3--|                                 |-3--|
| Q  Q Q    E  Q.      W                 Q  Q Q    E  Q.      W
|----7---------------|-----------------|-7--7-7----7--------|--------------|
|-9--9-9----9--------|-----------------|-7--7-7----7--------|--------------|
|-9--9-9----9--------|-----------------|-8--8-8----8--------|--------------|
|-9--9-9----9--------|-----------------|-9--9-9----9--------|--------------|
|-7--7-7----7--------|-----------------|-9--9-9----9--------|--------------|
|-7--7-7----7--------|-----------------|-7--7-7----7--------|--------------|


  B5                G#5                 B5             F#5
  Q.     E E Q.     H.        +E  S S   H.        Q    W
|-----------------|-------------------|--------------|----------|
|--------2-2-4----|-----------------2-|-4---------4--|----------|
|-4---------------|-1---------(1)-4---|--------------|----------|
|-----------------|-------------------|--------------|-4--------|
|-----------------|-------------------|--------------|----------|
|-----------------|-------------------|--------------|----------|
|
| Q   H.            Q   H.              Q   H.         Q  H.
|-----------------|-------------------|--------------|----------|
|-----------------|-------------------|--------------|----------|
|-----------------|-------------------|--------------|----------|
|-9---------------|-6-----------------|-9------------|-4--------|
|-9---------------|-6-----------------|-9------------|-4--------|
|-7---------------|-4-----------------|-7------------|-2--------|


 Middle 8
  B5B/F#
  E E H.        Wx3
|-------------|--------|
|-------------|--------|
|---8---------|--------|
|-9-9---------|--------|
|-9-9---------|--------|
|-7-----------|--------|
|
| E E H.        Wx3
|-------------|--------|
|-------------|--------|
|-------------|--------|
|-9-9---------|--------|
|-9-9---------|--------|
|-7-7---------|--------|


  E/B        N.C.                         E
  W          W                 W           E Q  Q  Q  E
|-7--------|-----------------|----------|----7--7--7----|
|-9--------|-----------------|----------|-^9----------9-|
|-9--------|-----------------|----------|-^9------------|
|-9--------|-----------------|----------|---------------|
|-7--------|-----------------|----------|---------------|
|----------|-----------------|----------|---------------|
|
| Gtr II
| W          E E E E E E E E   W           W
|-7--------|---7-7-7-7-7-----|----------|---------------|
|-9--------|-------------9-9-|----------|--9------------|
|-9--------|-----------------|-9--------|--9------------|
|-9--------|-----------------|----------|---------------|
|----------|-----------------|----------|---------------|
|----------|-----------------|----------|---------------|


  Q=137
       B/F#
    E   E  E  E  E  E  E  E    E  E  E  E E  E  E  E
|------11----11----11----11-|----11----11---11----11-|
|------12----12----12----12-|----12----12---12----12-|
|------11----11----11----11-|----11----11---11----11-|
|---------------------------|------------------------|
|---------------------------|------------------------|
|---------------------------|------------------------|
|
|   Q      Q     E  E  E  E    E  E  E  Q    E  E  E
|---------11----11-11-11-11-|-14-14-14-11---11-11-11-|
|-^12-----12----------------|------------------------|
|-^(9)----------------------|------------------------|
|---------------------------|------------------------|
|---------------------------|------------------------|
|---------------------------|------------------------|


   E  E  E  E E  E  E  E    E  E  E  E  E  E  +S   S  S  S
|----11----11---11----11-|----11----11----11-(11)-11-11-11-|
|----12----12---12----12-|----12----12----12-(12)-12-12-12-|
|----11----11---11----11-|----11----11----11-(11)-11-11-11-|
|------------------------|---------------------------------|
|------------------------|---------------------------------|
|------------------------|---------------------------------|
|
|  e  E  E  Q    E  E  E    E  E  E  E  e  E   Q
|-16-16-16-11---11-11-11S|=18-18-18-18-18-16--14-----------|
|------------------------|---------------------------------|
|------------------------|---------------------------------|
|------------------------|---------------------------------|
|------------------------|---------------------------------|
|------------------------|---------------------------------|


      E
   E  E E  E  E  E  E   E    E E  E  E E  E  E  E
|-----7----7-----7------7-|----7-----7----7-----7-|
|-----9----9-----9------9-|----9-----9----9-----9-|
|-----9----9-----9------9-|----9-----9----9-----9-|
|-------------------------|-----------------------|
|-------------------------|-----------------------|
|-------------------------|-----------------------|
|
|  Q.      E  E  E  E   E    Q    E  Q    E  E  E
|-------------------------|-----------------------|
|-12------12-12-12-12--12-|-14---12------14-12----|
|------------------(9)----|---------13---------13-|
|-------------------------|-----------------------|
|-------------------------|-----------------------|
|-------------------------|-----------------------|


    E  E  E  E E  E  E  E    E  E  E  E E  E +S  S  S S
|------7-----7----7-----7-|-----7-----7----7-(7)-7--7-7-|
|------9-----9----9-----9-|-----9-----9----9-(9)-9--9-9-|
|------9-----9----9-----9-|-----9-----9----9-(9)-9--9-9-|
|-------------------------|-----------------------------|
|-------------------------|-----------------------------|
|-------------------------|-----------------------------|
|
|  +Q     Q.      E  E  E    E  E  E  Q    E  E     E
|-------------------------|-----------------------------|
|--------12------12-12-12-|-----------------------------|
|-(13)---13---------------|-12-12-12-12---12-12----12---|
|-------------------------|-----------------------------|
|-------------------------|-----------------------------|
|-------------------------|-----------------------------|


 Over theres, there's...
    B/F#
  E  E E  E E  E E  E   E  E E  E E  E E  E
|---11---11---11---11-|---11---11---11---11-|
|---12---12---12---12-|---12---12---12---12-|
|---11---11---11---11-|---11---11---11---11-|
|---------------------|---------------------|
|---------------------|---------------------|
|---------------------|---------------------|
|
| W                     W
|---------------------|---------------------|
|---------------------|---------------------|
|---------------------|---------------------|
|---------------------|---------------------|
|---------------------|---------------------|
|---------------------|---------------------|


    E
  E   E  E  E  E   E E  E   E  E E  E E  E  +S   S  S  S
|----11----11-----11---11-|---11---11---11-(11)-11-11-11-|
|----12----12-----12---12-|---12---12---12-(12)-12-12-12-|
|----11----11-----11---11-|---11---11---11-(11)-11-11-11-|
|-------------------------|------------------------------|
|-------------------------|------------------------------|
|-------------------------|------------------------------|
|
| E   Q.      +H            W
|---^-7-------(7)---------|------------------------------|
|---^-9-------(9)---------|------------------------------|
|---^-9-------(9)---------|------------------------------|
|---^(9)------------------|------------------------------|
|-------------------------|------------------------------|
|-------------------------|------------------------------|


    E
  E E E E E E E E   E E E E E E E E
|---7---7---7---7-|---7---7---7---7-|
|---9---9---9---9-|---9---9---9---9-|
|---9---9---9---9-|---9---9---9---9-|
|-----------------|-----------------|
|-----------------|-----------------|
|-----------------|-----------------|
|
| W                 W
|-----------------|-----------------|
|-----------------|-----------------|
|-----------------|-----------------|
|-----------------|-----------------|
|-----------------|-----------------|
|-----------------|-----------------|


    Em/B                  E
  E  E  E E  E  E E E   E  E  E E  E  E S S S S
|----7----7-----7---7-|----7----7-----7---7-7-7-|
|----9----9-----9---9-|----9----9-----9---9-9-9-|
|----9----9-----9---9-|----9----9-----9---9-9-9-|
|---------------------|-------------------------|
|---------------------|-------------------------|
|---------------------|-------------------------|
|
| E  Q.     +Q    Q     E  Q.     +Q    Q
|---------------------|---^7------(7)-----------|
|---^8------(8)-------|---^8------(8)-----------|
|---^9------(9)-------|---^9------(9)-----------|
|---^9------(9)-------|-------------------------|
|---------------------|-------------------------|
|---------------------|-------------------------|


    B/F#
  E  E E  E  E   E  E  E    E   E E  E E  E E  E
|---11---11-----11----11-|-----11---11---11---11-|
|---12---12-----12----12-|-----12---12---12---12-|
|---11---11-----11----11-|-----11---11---11---11-|
|------------------------|-----------------------|
|------------------------|-----------------------|
|------------------------|-----------------------|
|
| Q    E  E +E   Q.         H.              Q
|---------7-(7)----------|-----------------------|
|-9--------------9-------|-(9)-------------------|
|-9----9-----------------|--9--------------------|
|------------------------|-----------------------|
|------------------------|-----------------------|
|------------------------|-----------------------|


  E  E E  E E  E E  E   E  E E  E E  E  +S   S  S  S
|---11---11---11---11-|---11---11---11-(11)-11-11-11-|
|---12---12---12---12-|---12---12---12-(12)-12-12-12-|
|---11---11---11---11-|---11---11---11-(11)-11-11-11-|
|---------------------|------------------------------|
|---------------------|------------------------------|
|---------------------|------------------------------|
|
| Q    E  E E  E E  E   E  E E  E E  E   E      E
|---------------------|-7--7-7--7-7--7---7------7----|
|-----------9--9-9--9-|-9--9-9--9-9--9---9------9----|
|------9--9-9--9-9--9-|-9--9-9--9-9--9---9------9----|
|---------------------|------------------------------|
|---------------------|------------------------------|
|---------------------|------------------------------|


                                                        H=H
    E
  E E E E E E E E   E E E E E E E E   E E E E E E E E   E E E E E E E E
|---7---7---7---7-|---7---7---7---7-|---7---7---7---7-|---7-7-7-7-7-7-7-|
|---9---9---9---9-|---9---9---9---9-|---9---9---9---9-|---9-9-9-9-9-9-9-|
|---9---9---9---9-|---9---9---9---9-|---9---9---9---9-|---9-9-9-9-9-9-9-|
|-----------------|-----------------|-----------------|-----------------|
|-----------------|-----------------|-----------------|-----------------|
|-----------------|-----------------|-----------------|-----------------|
|
| E E E E E E E E   E E E E E E E E   E E E E E E E E   E E E E E E E E
|-7-7-7-7-7-7-7-7-|-7-7-7-7-7-7-7-7-|-7-7-7-7-7-7-7-7-|-7-7-7-7-7-7-7-7-|
|-9-9-9-9-9-9-9-9-|-9-9-9-9-9-9-9-9-|-9-9-9-9-9-9-9-9-|-7-7-7-7-7-7-7-7-|
|-9-9-9-9-9-9-9-9-|-9-9-9-9-9-9-9-9-|-9-9-9-9-9-9-9-9-|-8-8-8-8-8-8-8-8-|
|-----------------|-9-9-9-9-9-9-9-9-|-9-9-9-9-9-9-9-9-|-9-9-9-9-9-9-9-9-|
|-----------------|-----------------|-7-7-7-7-7-7-7-7-|-9-9-9-9-9-9-9-9-|
|-----------------|-----------------|-----------------|-7-7-7-7-7-7-7-7-|


 Solo
  Q=150
  B5
  E E E E E E E E   E E E E E E E E   E E E E E E E E   E E E E E E E E
|-----------------|-----------------|-----------------|-----------------|
|-----------------|-----------------|-----------------|-----------------|
|-----------------|-----------------|-----------------|-----------------|
|-9-9-9-9-9-9-9-9-|-9-9-9-9-9-9-9-9-|-9-9-9-9-9-9-9-9-|-9-9-9-9-9-9-9-9-|
|-9-9-9-9-9-9-9-9-|-9-9-9-9-9-9-9-9-|-9-9-9-9-9-9-9-9-|-9-9-9-9-9-9-9-9-|
|-7-7-7-7-7-7-7-7-|-7-7-7-7-7-7-7-7-|-7-7-7-7-7-7-7-7-|-7-7-7-7-7-7-7-7-|
|
| W                 E E E Q   Q   E   W                 E E E Q   Q   E
|-----------------|-----------------|-----------------|-----------------|
|-----------------|-------2---------|-----------------|-------2---------|
|-4---------------|-4-3-4-----4---3-|-4---------------|-4-3-4-----4---3-|
|-----------------|-----------------|-----------------|-----------------|
|-----------------|-----------------|-----------------|-----------------|
|-----------------|-----------------|-----------------|-----------------|


  B5
  E E E E E E E E   E  E  E  E E E E E   E  E E E E E E E   E E E E E E E E
|-----------------|--------------------|------------------|----------------|
|-----------------|--------------------|------------------|----------------|
|-----------------|--------------------|------------------|----------------|
|-9-9-9-9-9-9-9-9-|-9--9--9--9-9-9-9-9-|-9--9-9-9-9-9-9-9-|9-9-9-9-9-9-9-9-|
|-9-9-9-9-9-9-9-9-|-9--9--9--9-9-9-9-9-|-9--9-9-9-9-9-9-9-|9-9-9-9-9-9-9-9-|
|-7-7-7-7-7-7-7-7-|-7--7--7--7-7-7-7-7-|-7--7-7-7-7-7-7-7-|7-7-7-7-7-7-7-7-|
|
| W                 +Q    +E  Q   E Q     H.         E E   E E E E E E E E
|-----------------|---------------------|----------------|-----------------|
|-----------------|-----------4---2-----|----------------|-----------------|
|-1---------------|-(1)---(1)-------4---|-1----------1-1-|-1-1-1-1-0-0-0-0-|
|-----------------|---------------------|----------------|-----------------|
|-----------------|---------------------|----------------|-----------------|
|-----------------|---------------------|----------------|-----------------|


  B5
  Q  E E E E E E   E E E E E E E E   E E E E E E E E   E E E E E E E E
|----------------|-----------------|-----------------|-----------------|
|----------------|-----------------|-----------------|-----------------|
|----------------|-----------------|-----------------|-----------------|
|-9--9-9-9-9-9-9-|-9-9-9-9-9-9-9-9-|-9-9-9-9-9-9-9-9-|-9-9-9-9-9-9-9-9-|
|-9--9-9-9-9-9-9-|-9-9-9-9-9-9-9-9-|-9-9-9-9-9-9-9-9-|-9-9-9-9-9-9-9-9-|
|-7--7-7-7-7-7-7-|-7-7-7-7-7-7-7-7-|-7-7-7-7-7-7-7-7-|-7-7-7-7-7-7-7-7-|
|
| W                E E E Q   Q   E   W                 E E E Q   E Q
|----------------|-----------------|-----------------|-----------------|
|----------------|-------2---------|-----------------|-------2-----4---|
|-4--------------|-4-3-4-----4---3-|-4---------------|-4-3-4-----4-----|
|----------------|-----------------|-----------------|-----------------|
|----------------|-----------------|-----------------|-----------------|
|----------------|-----------------|-----------------|-----------------|


  B5
  E E E E E E E E   E  E E E  E E E E   E  E E E E E E E   E E E E E E E E
|-----------------|-------------------|------------------|-----------------|
|-----------------|-------------------|------------------|-----------------|
|-----------------|-------------------|------------------|-----------------|
|-9-9-9-9-9-9-9-9-|-9--9-9-9--9-9-9-9-|-9--9-9-9-9-9-9-9-|-9-9-9-9-9-9-9-9-|
|-9-9-9-9-9-9-9-9-|-9--9-9-9--9-9-9-9-|-9--9-9-9-9-9-9-9-|-9-9-9-9-9-9-9-9-|
|-7-7-7-7-7-7-7-7-|-7--7-7-7--7-7-7-7-|-7--7-7-7-7-7-7-7-|-7-7-7-7-7-7-7-7-|
|
| W                 Q.     Q.     Q     H.           E E   E E E E E E E E
|-----------------|-------------------|------------------|-----------------|
|-----------------|-4------2----------|------------------|-----------------|
|-1---------------|---------------4---|-1------------1-1-|-0-0-0-0-0-0-0-0-|
|-----------------|-------------------|------------------|-----------------|
|-----------------|-------------------|------------------|-----------------|
|-----------------|-------------------|------------------|-----------------|


    B5
    E E E E E E E E   E E E E E E E E   E E E E E E E E   E E E E E E E E
||------------------|-----------------|-----------------|-----------------||
||o-----------------|-----------------|-----------------|----------------o||
||------------------|-----------------|-----------------|-----------------||
||--9-9-9-9-9-9-9-9-|-9-9-9-9-9-9-9-9-|-9-9-9-9-9-9-9-9-|-9-9-9-9-9-9-9-9-||
||o-9-9-9-9-9-9-9-9-|-9-9-9-9-9-9-9-9-|-9-9-9-9-9-9-9-9-|-9-9-9-9-9-9-9-9o||
||--7-7-7-7-7-7-7-7-|-7-7-7-7-7-7-7-7-|-7-7-7-7-7-7-7-7-|-7-7-7-7-7-7-7-7-||
|
|   E E E E E E E E   E E E E E E E E   E E E E E E E E   E E E E E E E E
||--4-4-2-2-------4-|-4-4-2-2---------|-4-4-2-2-------4-|-4-4-2-2---------||
||o---------4-4-4---|---------4-4-4-4-|---------4-4-4---|---------4-4-4-4o||
||------------------|-----------------|-----------------|-----------------||
||------------------|-----------------|-----------------|-----------------||
||o-----------------|-----------------|-----------------|----------------o||
||------------------|-----------------|-----------------|-----------------||


  B5
  E E E E E E E E   E E E E E E E E   E E E E E E E E   E E E E E E E E
|-----------------|-----------------|-----------------|-----------------|
|-----------------|-----------------|-----------------|-----------------|
|-----------------|-----------------|-----------------|-----------------|
|-9-9-9-9-9-9-9-9-|-9-9-9-9-9-9-9-9-|-9-9-9-9-9-9-9-9-|-9-9-9-9-9-9-9-9-|
|-9-9-9-9-9-9-9-9-|-9-9-9-9-9-9-9-9-|-9-9-9-9-9-9-9-9-|-9-9-9-9-9-9-9-9-|
|-7-7-7-7-7-7-7-7-|-7-7-7-7-7-7-7-7-|-7-7-7-7-7-7-7-7-|-7-7-7-7-7-7-7-7-|
|
| E E E E E E E E   E E E E E E E E   E E E E E E E E   E E E E E E E E
|-4-4-2-2-------4-|-4-4-2-2---------|-4-4-2-2-------4-|-4-4-2-2---------|
|---------4-4-4---|---------4-4-4-4-|---------4-4-4---|---------4-4-4-4-|
|-----------------|-----------------|-----------------|-----------------|
|-----------------|-----------------|-----------------|-----------------|
|-----------------|-----------------|-----------------|-----------------|
|-----------------|-----------------|-----------------|-----------------|
|
| Gtr III
| W                 E E E Q   E Q     W                 E E E Q   E Q
|-----------------|-----------------|-----------------|-----------------|
|-----------------|-------2---------|-----------------|-------2-----4---|
|-4---------------|-4-3-4-----4-3---|-4---------------|-4-3-4-----4-----|
|-----------------|-----------------|-----------------|-----------------|
|-----------------|-----------------|-----------------|-----------------|
|-----------------|-----------------|-----------------|-----------------|


  B5
  E E E E E E E E   E  E E E  E E E E   E  E E E E E E E   E E E E E E E E
|-----------------|-------------------|------------------|-----------------|
|-----------------|-------------------|------------------|-----------------|
|-----------------|-------------------|------------------|-----------------|
|-9-9-9-9-9-9-9-9-|-9--9-9-9--9-9-9-9-|-9--9-9-9-9-9-9-9-|-9-9-9-9-9-9-9-9-|
|-9-9-9-9-9-9-9-9-|-9--9-9-9--9-9-9-9-|-9--9-9-9-9-9-9-9-|-9-9-9-9-9-9-9-9-|
|-7-7-7-7-7-7-7-7-|-7--7-7-7--7-7-7-7-|-7--7-7-7-7-7-7-7-|-7-7-7-7-7-7-7-7-|
|
| E E E E E E E E   E  E E E  E E E E   E  E E E E E E E   E E E E E E E E
|-4-4-2-2-------4-|-4--4-2-2----------|-4--4-2-2---------|-----2-2---------|
|---------4-4-4---|-----------4-4-4-4-|----------4-4-2-2-|-4-4-----4-4-2-2-|
|-----------------|-------------------|------------------|-----------------|
|-----------------|-------------------|------------------|-----------------|
|-----------------|-------------------|------------------|-----------------|
|-----------------|-------------------|------------------|-----------------|
|
| W                 Q.     Q.     Q     H.           E E   E E E E E E E E
|-----------------|-------------------|------------------|-----------------|
|-----------------|-4------2----------|------------------|-----------------|
|-1---------------|---------------4---|-1------------1-1-|-0-0-0-0-0-0-0-0-|
|-----------------|-------------------|------------------|-----------------|
|-----------------|-------------------|------------------|-----------------|
|-----------------|-------------------|------------------|-----------------|


 Outro
  Q=140
  B       B/F#
   W               H.               E E
|-^7------------|-----------------------|
|-^7------------|-----------------------|
|-^8------------|-----------------------|
|-^9------------|---------------------9-|
|-^9------------|-----------------------|
|-^7------------|-----------------------|
|
|  H    E  Q.      Q     E   Q   E  E E
|-11------11----|------(11)-11--11-11---|
|-12------12----|-12----12--12--12-12---|
|-11------11----|-11----11---------11---|
|---------------|-----------------------|
|---------------|-----------------------|
|---------------|-----------------------|


   W                +Q.        E +E   E  E  E
|-----------------|----------------------------|
|-----------------|----------------------------|
|-----------------|----------------------------|
|--8--------------|-(8)--------8-(8)--9--8-(8)-|
|-----------------|----------------------------|
|-----------------|----------------------------|
|
|  Q   Q  E  Q.      Q     E   Q      E  E  E
|-11--11----11----|------(11)-11-----11-11-----|
|-12--12----12----|-12----12--12-----12-12-----|
|-11--------11----|-11----11------------11-----|
|-----------------|----------------------------|
|-----------------|----------------------------|
|-----------------|----------------------------|


  E
  W            +W                W                H.         +E  E
|------------|-----------------|---------------|-------------------|
|------------|-----------------|---------------|-------------------|
|------------|-----------------|---------------|-------------------|
|-6----------|-(6)-------------|---------------|--5----------(5)-9-|
|------------|-----------------|---------------|-(3)---------------|
|------------|-----------------|---------------|-------------------|
|
| Q  H.         Q   E Q  E E E   Q  E Q  E E E    Q   E Q  E  E  E
|----7-------|--------7--7-7---|------7--7-7---|--------7--7--7----|
|-9--9-------|--9---9-9--9-9---|-9--9-9--9-9---|--9---9-9--9--9----|
|-9--9-------|--9---9------9---|-9--9------9---|--9---9-9--9-------|
|------------|-----------------|---------------|--9---9------------|
|------------|-----------------|---------------|-------------------|
|------------|-----------------|---------------|-------------------|


  B/F#
   W               W
|---------------|-------------------|
|---------------|-------------------|
|---------------|-------------------|
|--9------------|-------------------|
|---------------|-------------------|
|---------------|-------------------|
|
|  H    E  Q.      Q   E  Q   E  Q
|-11------11----|--------11--11-11--|
|-12------12----|-12--12-12--12-12--|
|-11------11----|-11--11------------|
|---------------|-------------------|
|---------------|-------------------|
|---------------|-------------------|


   W               +Q.      E +E   E  E  E
|----------------|--------------------------|
|----------------|--------------------------|
|----------------|--------------------------|
|--8-------------|-(8)------8-(8)--9--8-(8)-|
|----------------|--------------------------|
|----------------|--------------------------|
|
|  Q  E  Q.   Q     Q    E  Q      E  E  E
|----------------|-11---11-11-----11-11-----|
|-12----12-------|-12---12-12-----12-12-----|
|-------11-------|-11---11-----------11-----|
|----------------|--------------------------|
|----------------|--------------------------|
|----------------|--------------------------|


                                   H.=H
  E
  W             +W                 +Q   H.
|-------------|------------------|-----------------|
|-------------|------------------|-----------------|
|-------------|------------------|-----------------|
|-6-----------|-(6)--------------|-(6)-------------|
|-------------|------------------|-----------------|
|-------------|------------------|-----------------|
|
| Q  H    E E    Q   E Q  E +Q      Q   E  Q  E Q
|-------------|--------7--7-(7)--|---------7--7-7--|
|-9--9------9-|--9---9-9--9-(9)--|--9---9--9--9-9--|
|-9--9------9-|--9---9-----------|--9---9-------9--|
|-------------|------------------|-----------------|
|-------------|------------------|-----------------|
|-------------|------------------|-----------------|


                Q=68
                       B
  E E E E E E E E   Q   H.         +H     H
|-7-7-7-7-7-7-7-7-|----^7-------|-^(7)---------*|
|-9-9-9-9-9-9-9-9-|----^7-------|-^(7)---------*|
|-9-9-9-9-9-9-9-9-|----^8-------|-^(8)---------*|
|-----------------|----^9-------|-^(9)---------*|
|-----------------|----^9-------|-^(9)---------*|
|-----------------|----^7-------|-^(7)---------*|
|
| E E E E E E E E   Q   H.         +H     H
|-------------7-7-|----^7-------|-^(7)---------*|
|-------9-9-9-9-9-|----^7-------|-^(7)---------*|
|-9-9-9-9-9-9-9-9-|----^8-------|-^(8)---------*|
|-9-9-9-9-9-9-9-9-|----^9-------|-^(9)---------*|
|-----------------|----^9-------|-^(9)---------*|
|-----------------|----^7-------|-^(7)---------*|




----------------------------------------------------------------------------


Duration Legend
---------------
W - whole; H - half; Q - quarter; E - 8th; S - 16th; T - 32nd; X - 64th; a - acciaccatura
+ - note tied to previous; . - note dotted; .. - note double dotted
Uncapitalized letters represent notes that are staccato (1/2 duration)
Irregular groupings are notated above the duration line
Duration letters will always appear directly above the note/fret number it represents the
duration for.  Duration letters with no fret number below them represent rests.  Multi-
bar rests are notated in the form Wxn, where n is the number of bars to rest for.  Low
melody durations appear below the staff

Tablature Legend
----------------
 h   - hammer-on
 p   - pull-off
 b   - bend
 pb  - pre-bend
 r   - bend release (if no number after the r, then release immediately)
 /\  - slide into or out of (from/to "nowhere")
 s   - legato slide
 S   - shift slide
 - natural harmonic
[n]  - artificial harmonic
n(n) - tapped harmonic
 ~   - vibrato
 tr  - trill
 T   - tap
 TP  - trem. picking
 PM  - palm muting
\n/  - tremolo bar dip; n = amount to dip
 \n  - tremolo bar down
 n/  - tremolo bar up
/n\  - tremolo bar inverted dip
 =   - hold bend; also acts as connecting device for hammers/pulls
 <> - volume swell (louder/softer)
 x   - on rhythm slash represents muted slash
 o   - on rhythm slash represents single note slash

Misc Legend
-----------
 |  - bar
||  - double bar
||o - repeat start
o|| - repeat end
*|  - double bar (ending)
 :  - bar (freetime)
 $  - Segno
 &  - Coda
Tempo markers -  = BPM(8/16=s8/s16), where s8 = swing 8ths, s16 = swing 16ths



----------------------------------------------------------------------------
comments
print report bad tab
6 comments total. Showing first comments.
+1 reply
frusciante350 wrote on June 9 2007, 06:29 am

gud tab but a bit confusin to read

+1 reply
The Mattster wrote on June 24 2007, 09:38 am

excellent tab! but it is confusin n takes a while 2 c where everyfin cums in! it is 12 pages 2 print flipinec! but worth it tho!
gr8 tab but sumtimes the guitar parts are mixed up coz acording 2 sum live videos on youtube at sum parts alex plays the top line n jamie the botom and sum parts its right! but thts not a problem! altogether wiked tab! wel done!

0 reply
voodoochild23 wrote on July 30 2008, 04:39 pm

oh... thank heavens the tablature legend was there in full to explain all the tapped harmonics and tremelo bar stuff involved!

I want to post or [tab]
guest
You may want to rate the tab now too:
select rating
Please do not post tabs as comments. Select "correction" instead!