Oops, an error
Loading. Please wait.

All My Own Stunts Bass Tab

ver2
ver2

Whole song

Interactive

More versions @911Tabs.com
787 views 3 this week
no commentswrite comment
1 2 3 4 5
please rate
Autoscroll
+/-
esc
set tempo
stop
Contributor
Difficulty
intermediate
WARNING: You are trying to view
                                    content from Ultimate-Guitar.com
                                    in an unauthorized application,
                                    which is prohibited.

                                    Please use an official Ultimate
                                    Guitar Tabs application for iPhone,
                                    iPad or Android to access legitimate
                                    chords, guitar, bass, and drum tabs
                                    from Ultimate-Guitar.com database.

                                    Type "ultimate guitar tabs" in Apple
                                    App Store's or Android Market's
                                    search to find the application.
Artist: Arctic Monkeys

Allbum: Suck It And See

Song: All My Own Stunts


Verse

G||--------------------||
D||--------------------||
A||--------------------||
E||-------------3--3-3-||

G||--------------------|--------------------||
D||--------------------|--------------------|| x3
A||--------------------|--------------------||
E||-3p2----2--2------2-|-2------2--2-3--3-3-||

G||--------------------|--------------------|
D||--------------------|----------------2-4-| 
A||--------------------|-------------4------|
E||-3p2----2--2------2-|-2------2--2--------|

--- (0:34)

G||--------------------|--------------------|
D||--------------------|--------------------| 
A||--------------------|---------------0h1--|
E||-3p2----2--2------2-|-2------2--2-3------|

G||--------------------|--------------------|
D||--------------------|--------------------|
A||--------------------|--------------------|
E||-3p2----2--2------2-|-2------2--2-3--3-3-|

G||--------------------|--------------------|
D||--------------------|--------------------| 
A||--------------------|---------------0h1--|
E||-3p2----2--2------2-|-2------2--2-3------|

G||--------------------|--------------------|
D||--------------------|--------------------|
A||--------------------|--------------------|
E||-3p2----2--2------2-|-2------2--2-3--3-3-|

--- (0:48)

G||--------------------|--------------------|
D||--------------------|--------------------|
A||--------------------|--------------------|
E||-3p2----2--2------2-|-2------2--2-3--3-3-|

G||--------------------|--------------------|
D||--------------------|--------------------| 
A||--------------------|---------------0h1--|
E||-3p2----2--2------2-|-2------2--2-3------|

G||--------------------|--------------------|
D||--------------------|--------------------|
A||--------------------|--------------------|
E||-3p2----2--2------2-|-2------2--2-3--3-3-|

G||--------------------|--------------------|
D||--------------------|----------------2-4-| 
A||--------------------|-------------4------|
E||-3p2----2--2------2-|-2------2--2--------|

--- (1:03)

G||--------------------|--------------------|
D||--------------------|--------------------| 
A||--------------------|---------------0h1--|
E||-3p2----2--2------2-|-2------2--2-3------|

G||--------------------|--------------------|
D||--------------------|--------------------|
A||--------------------|--------------------|
E||-3p2----2--2------2-|-2------2--2-3--3-3-|

G||--------------------|--------------------|
D||--------------------|--------------------| 
A||--------------------|---------------0h1--|
E||-3p2----2--2------2-|-2------2--2-3------|

G||--------------------|--------------------||
D||--------------------|--------------------||
A||--------------------|-9------7--5------4-||
E||-3p2----2--2------9-|--------------------||

Chorus

G||--------------------|--------------------|--------------------||
D||--------------------|--------------------|--------------------||
A||-----------4--------|-----------9--------|-7----9-------------||
E||-2------5-------5---|-0----0-----------9-|-----------5----5---||

G||--------------------|--------------------|---------------------||
D||--------------------|--------------------|---------------------||
A||-----------4--------|-----------9--------|-7----9\----4----4---||
E||-7------5-------5---|-0----0-----------9-|---------------------||

---

G||--------------------|--------------------|
D||--------------------|--------------------|
A||-5------4--5-4--5---|--------------------|
E||--------------------|-0----0----2------9-|

G||--------------------|--------------------|
D||--------------------|--------------------|
A||-7----9-------------|-----------4--------|
E||-----------5----5---|-7------5-------5---|

G||----------------------|----------------------|
D||----------------------|-7--------------------|
A||------------------7h9-|------9-----------7h9-|
E||-0----3----2-2--------|-----------2-2--------|

G||----------------------|--------------------|
D||----------------------|-7------------------|
A||-7----9-----------7h9-|------9---------7h9-|
E||-----------2-2--------|-----------2-2------|

G||--------------------|
D||--------------------|
A||-7------------------|
E||---3--3-3-----------|


Verse 2

G||--------------------||
D||--------------------||
A||--------------------||
E||-------------3--3-3-||

G||--------------------|--------------------|
D||--------------------|--------------------| 
A||--------------------|---------------0h1--|
E||-3p2----2--2------2-|-2------2--2-3------|

G||--------------------|--------------------|
D||--------------------|--------------------| 
A||--------------------|---------------0h1--|
E||-3p2----2--2------2-|-2------2--2-3------|

G||--------------------|--------------------|
D||--------------------|----------------2-4-| 
A||--------------------|-------------4------|
E||-3p2----2--2------2-|-2------2--2--------|

---

G||--------------------|--------------------|
D||--------------------|--------------------| 
A||--------------------|---------------0h1--|
E||-3p2----2--2------2-|-2------2--2-3------|

G||--------------------|--------------------|
D||--------------------|--------------------|
A||------------------4-|--------------------|
E||-3p2----2--2--------|-2------2--2-3--3-3-|

G||--------------------|--------------------|
D||--------------------|--------------------| 
A||------------------4-|---------------0h1--|
E||-3p2----2--2--------|-2------2--2-3------|

G||--------------------|--------------------|
D||--------------------|----------------2-4-| 
A||------------------4-|-------------4------|
E||-3p2----2--2--------|-2------2--2--------|

---

G||--------------------|--------------------|
D||--------------------|--------------------| 
A||------------------4-|---------------0h1--|
E||-3p2----2--2--------|-2------2--2-3------|

G||--------------------|--------------------|
D||--------------------|--------------------|
A||------------------4-|--------------------|
E||-3p2----2--2--------|-2------2--2-3--3-3-|

G||--------------------|--------------------|
D||--------------------|--------------------| 
A||------------------4-|---------------0h1--|
E||-3p2----2--2--------|-2------2--2-3------|

G||--------------------|--------------------||
D||--------------------|--------------------||
A||--------------------|-9------7--5------4-||
E||-3p2----2--2------9-|--------------------||


Chorus 2

G||--------------------|--------------------|--------------------||
D||--------------------|--------------------|--------------------||
A||-2---------4--------|-----------9--------|-7----9-------------||
E||--------5-------5---|-0----0-----------9-|-----------5----5---||

G||--------------------|--------------------|---------------------||
D||--------------------|--------------------|---------------------||
A||-----------4--------|-----------9--------|-7----9\----4----4---||
E||-7------5-------5---|-0----0-----------9-|---------------------||

---

G||--------------------|--------------------|
D||--------------------|--------------------|
A||-5------4--5-4--5---|--------------------|
E||--------------------|-0----0----2------9-|

G||--------------------|--------------------|---------|
D||--------------------|--------------------|---------|
A||-7----9-------------|-----------4--------|---------|
E||-----------5----5---|-7------5-------5---|-0----3--|

G||----------------------|----------------------|--------------------|
D||-------------7--------|----------------------|-8------------------|
A||--------7h9-------9---|------------------7h9-|------9-------------|
E||-2--------------------|-2----0----2----------|-----------2----0---|

---

G||--------------------|--------------------|-----------|
D||--------------------|--------------------|-----------|
A||--------------------|-5------------------|-----------|
E||-3------3--3----3---|------5----2------2-|-2-----2---|

G||--------------------|----------------------|-----------|
D||--------------------|----------------------|-7---------|
A||--------------------|-5----------------7h9-|-------9---|
E||-3------3--3----3---|------5----2----------|-----------|

G||--------------------|--------------------|-----------|
D||--------------------|--------------------|-----------|
A||--------------------|-5------------------|-----------|
E||-3------3--3----3---|------5----2------2-|-2-----2---|

G||--------------------|----------------------|-----------|
D||--------------------|----------------------|-----------|
A||--------------------|-5----------------7h9-|-7-----9---|
E||-3------3--3----3---|------5----2----------|-----------|

---

G||--------------------|--------------------|-----------|
D||--------------------|--------------------|-----------|
A||--------------------|-5------------------|-----------|
E||-3------3--3----3---|------5----2------2-|-2-----2---|

G||--------------------|----------------------|-----------|
D||--------------------|----------------------|-7---------|
A||--------------------|-5----------------7h9-|-------9---|
E||-3------3--3----3---|------5----2----------|-----------|

G||--------------------|--------------------|-----------|
D||--------------------|--------------------|-----------|
A||--------------------|-5------------------|-----------|
E||-3------3--3----3---|------5----2------2-|-2-----2---|

G||--------------------|--------------------|
D||--------------------|--------------------|
A||--------------------|-5------------------|
E||-3------3--3----3---|--------------------|

---

G||----------------------|----------------------|
D||-------------7--------|----------------------|
A||--------7h9-------9---|--------7h9--7----9---|
E||-2--------------------|-2--------------------|

G||----------------------|----------------------|
D||-------------7--------|----------------------|
A||--------7h9-------9---|--------7h9--7--------|
E||-2--------------------|-2-------------3--3-3-|


tab by: Pedro Zappa
comments
We did not receive enough feedback on this tab! Please rate:
print report bad tab
1 2 3 4 5
I want to post or [tab]
guest
You may want to rate the tab now too:
select rating
Please do not post tabs as comments. Select "correction" instead!