Oops, an error
Loading. Please wait.

Am Tab

44,979 views 82 this week
7 commentsread comments
1 2 3 4 5
accurate
x 18
Autoscroll
+/-
esc
set tempo
stop
Contributor
Difficulty
intermediate
WARNING: You are trying to view
                                    content from Ultimate-Guitar.com
                                    in an unauthorized application,
                                    which is prohibited.

                                    Please use an official Ultimate
                                    Guitar Tabs application for iPhone,
                                    iPad or Android to access legitimate
                                    chords, guitar, bass, and drum tabs
                                    from Ultimate-Guitar.com database.

                                    Type "ultimate guitar tabs" in Apple
                                    App Store's or Android Market's
                                    search to find the application.
All of the songs for this album are dotted about this site and I thought it would be
better for the best versions of the songs to all be in one place :)
1.Do I Wanna Know - Tabbed By Zottepee

Intro
E|------------|
B|------------|
G|------------|
D|------------|
A|---------1--|
E|-3---1h3--3-|

Main riff 
E|----------------------------------------------------------|
B|----------------------------------------------------------|
G|----------------------------------------------------------|
D|----------1h3-1~------------------------------------------|
A|---------1------3/5-3~--1h3/5-3~--33-3h5-3h5---------1----|
E|-3~--1h3-------------------------------------3~---1h3--3~-|

E|---------------------------------|
B|---------------------------------|
G|---------------------------------|
D|----------1h3-1~-----------------|
A|---------1------3/5-3~--1h3/5-3~-|
E|-3~--1h3-------------------------|

E|---------------------------------------------------|
B|---------------------------------------------------|
G|---------------------------------------------------|
D|---------------------------------------------------| 
A|-5~---/10--6~--3h5-6-5-3~--1-3~--1h3/5---------1---|
E|--------------------------------------3~---1h3--3~-|

e|--------------------------|
B|--------------------------|
G|---14---14--15-17---14-15-|
D|-17---17------------------|
A|--------------------------|
E|--------------------------|

2.R U Mine - Tabbed By A7XSGZV

e|------------------------------x3|--------------------------------x1|
B|--------------------------------|----------------------------------|
G|--------------------------------|----------------------------------|
D|--------------------------------|----------------------------------|
A|--------2h4-2h4-5--5-5-4-2-2/14-|--------2h4-2h4-5--5-5-4-2--2-2-0-|
E|-2--2-2-------------------------|-2--2-2---------------------------|

Verse 1:
e|--------------------------------------x2|--------------------------------------x1|
B|----------------------------------------|----------------------------------------|
G|----------------2-----------------------|----------------2-4---------------------|
D|------------2h4---4-2-------------------|------------2h4-----4-------------------|
A|--------2h4-----------5--5-5-4-2--2-2-0-|--------2h4-----------5--5-5-4-2--2-2-0-|
E|-2--2-2---------------------------------|-2--2-2---------------------------------|

e|--------------------------------------x1|
B|----------------------------------------|
G|----------------2-----------------------|
D|------------2h4---4-2-------------------|
A|--------2h4-----------5--5-5-4-2--2-2-0-|
E|-2--2-2---------------------------------|

Chorus 1:
e|---------------------------x3|----------------------------------------x1|
B|-----------------------------|------------------------------------------|
G|-----------------------------|-------------------------------------4--2-|
D|-----------------------------|------------2h4-----2h4--------------4--2-|
A|-----------5--5-5-4-2--2-2-0-|--------2h4-----2h4-----2h4-5--5-5-4-2--0-|
E|-2--2-2----------------------|-2--2-2-----------------------------------|

Verse 2:
e|--------|
B|--------|
G|--------|
D|-4--4-4-|
A|-4--4-4-|
E|-2--2-2-| 

e|--------------------------------------x4|
B|----------------------------------------|
G|----------------2-----------------------|
D|------------2h4---4-2-------------------|
A|--------2h4-----------5--5-5-4-2--2-2-0-|
E|-2--2-2---------------------------------|

Chorus 2 same as Chorus 1

Break:
e|---------------------------------|
B|---------------------------------|
G|-4-444-444-444-6-7-777-777-777---|
D|-4-444-444-444-6-7-777-777-777-7-|
A|-2-222-222-222-4-5-555-555-555-7-|
E|-------------------------------5-|

e|---------------------------------------------------------------|
B|---------------------------------------------------------------|
G|---------------------------------------------------------------|
D|-4-444-444-444-6-7-777-777-777-77-9-999-999-99-12119744-44-|
A|-4-444-444-444-6-7-777-777-777-77-9-999-999-99-12119744-44-|
E|-2-222-222-222-4-5-555-555-555-55-7-777-777-77-109-7522-22-|

Solo:
e|----------------------------------------------------------------------------------------|
B|-----------------7h10b12-pb12r10--------------------------------------------------------|
G|-------------6h9-----------------9b11-9-------------------------------------------------|
D|---------7h9----------------------------------------------------------------------44-44-|
A|-----7h9-------------------------------------------------------5--5-5-4-2-0-2-4-0-44-44-|
E|-7h9----------------------------------2--2-2-5h7p5h7p5h7p5h7p5--------------------22-22-|

Verse 3:
e|--------------------------------------------------------------------------------------|
B|--------------------------------------------------------------------------------------|
G|----------------2---------------------------------------------------------------------|
D|------------2h4---4-2------------------------------2h4-----2h4------------------------|
A|--------2h4-----------5--5-5-4-2--2-2-0--------2h4-----2h4-----2h4-5--5-5-4-2-0-2-4-0-|
E|-2--2-2---------------------------------2--2-2----------------------------------------|

e|-------------------------------------------------------------------------------------|
B|-------------------------------------------------------------------------------------|
G|----------------2--------------------------------------------------------------------|
D|------------2h4---4-2------------------------------2h4-----2h4-----------------------|
A|--------2h4-----------5--5-5-4-2--2-2-0--------2h4-----2h4-----2h4-5--5-5-4-2--2-2-0-|
E|-2--2-2---------------------------------2--2-2---------------------------------------|

Final Chorus Same as Chorus 1

3.One For The Road - Tabbed By nathanprother

Intro

e|------------7---8---10---8---7------|
B|---8---10------------------------10-|
G|-9---9----9---9---9----9---9---9----|
D|------------------------------------|
A|------------------------------------|
E|------------------------------------|

e|------------------------------------|
B|------------------------------------|
G|------------------------------------|
D|------------------------------------|
A|----3-2-3-2-3-2---------------------|
E|----------------5-3-----------------|

verse 

e|------------------------------------|
B|------------------------------------|
G|-------4--5--2----------------------|
D|----2--4--5--2----------------------|
A|----2--2--3--0----------------------|
E|----0-------------------------------|

Verse (Riff)

Played on bass but can be played on the guitar

e|------------------------------------|
B|------------------------------------|
G|------------------------------------|
D|------------------------------------|
A|------------------------------------|
E|---0-3-5-7---8-3-7-5----------------|

1st Chorus (carry on playing the verse)


e|--------------------------------------------|
B|----12--------12--------12--------12--------|
G|--12--12-11-12--12-11-12--12-11-12--12-11---|
D|--------------------------------------------|
A|--------------------------------------------|
E|--------------------------------------------|


2nd Chorus

e|-----------------------------------------------------------------|
B|-----------------------------------------------------------------|
G|---5---------------5---------------5---------------5-------4-----|
D|---5-------2-------5-------2-------5-------2-------5-------4-----|
A|---3-------2-------3-------2-------3-------2-------3-------2-----|
E|-----------0---------------0---------------0---------------------|



e|------------7---8---10---8---7------|
B|---8---10------------------------10-|
G|-9---9----9---9---9----9---9---9----|
D|------------------------------------|
A|------------------------------------|
E|------------------------------------|



e|------------------------------------|
B|------------------------------------|
G|--9-11-12/19-17-16-14-12------------|
D|------------------------------------|
A|------------------------------------|
E|------------------------------------|

Solo

e|-------------------------------------------|
B|-------------------------------------------|
G|--14^-----------11-11-11----------------12-| 
D|------14--12h14---------12/14---9-12-14----|
A|-------------------------------------------|
E|-------------------------------------------|

e|-------------------------------------------------------------------------|
B|--14^-14---19-16---19^-19-16-14---9-12-14-12-14-12-9-12-14-12-9-12-14-16-|
G|-------------------------------------------------------------------------|
D|-------------------------------------------------------------------------|
A|-------------------------------------------------------------------------|
E|-------------------------------------------------------------------------|

e|------------------------------------|
B|----------------19^-17--------------|
G|--19-19^-19-19^--------14-12-9------|
D|------------------------------------|
A|------------------------------------|
E|------------------------------------|



e|-----------------------------------------------------------------|
B|-----------------------------------------------------------------|
G|---5---------------5---------------5---------------5-------4-----|
D|---5-------2-------5-------2-------5-------2-------5-------4-----|
A|---3-------2-------3-------2-------3-------2-------3-------2-----|
E|-----------0---------------0---------------0---------------------|



e|------------------------------------|
B|------------------------------------|
G|--9-11-12/19-17-16-14-12------------|
D|------------------------------------|
A|------------------------------------|
E|------------------------------------|

4.Arabella - Tabbed By Jeo_Ordoqui

Intro
          P.M.----------
E|---------------5-------|
B|---------5-7-8---8-7-5-|
G|-/14~------------------| x2
D|-----------------------|
A|-----------------------|
E|-----------------------|

Verse
    P.M.----------
E|---------5-------|
B|---5-7-8---8-7-5-|
G|-----------------| x2
D|-----------------|
A|-----------------|
E|-----------------|

Pre-Chorus
E|-------------|-------|
B|-------------|-------|
G|-7-9---------|---7-9-|
D|-7-9---7---5-|x3-7-9-|
A|-5-7---7---5-|---5-7-|
E|-------5---3-|-------|


Chorus
E|-----------------------------------|
B|-----------------------------------|
G|-7-9--12--7-9-14--7-9-12--12-9--16-|
D|-7-9--12--7-9-14--7-9-12--12-9--16-|
A|-5-7--10--5-7-12--5-7-10--10-7--14-|
E|-----------------------------------|

(Em)


Verse  (play continuously A|-7- muted)
Pre-Chorus
Chorus

(chords)
E|--------------------------------------------------|
B|--------------------------------------------------|
G|-245--555--222--999--121212--555--222--555--77-88-|
D|-245--555--222--999--121212--555--222--555--77-88-|
A|-023--333--000--777--101010--333--000--333--55-66-|
E|--------------------------------------------------|


E|---------------------------------------------------------------------------|
B|---------------------------------------------------------------------------|
G|-14b16b14p12---x7-12/14/12------12h14b16-14-13h14p12--------------12h14b16-|
D|------------14-------------12h14---------------------14------12h14---------|
A|--------------------------------------------------------12h14--------------|
E|---------------------------------------------------------------------------|

------------------------|
--------18--------------|
14-14b16--14b16b14~-12--|
----------------------14|
------------------------|
------------------------|

Chorus

Ends with
E|-----|
B|-----|
G|-7-9-|
D|-7-9-|
A|-5-7-|
E|-----|

5.I Want It All - Tabbed By tennessee90


Verse and Chorus (all the same):

e|--------------------------------------------------------------------------|
B|--------------------------------------------------------------------------|
G|--------------------------------------------------------------------------|
D|----5---5-5---7---7-7---8---8-8--10-10-10------7777---7777----------------|
A|----x---x-x---x---x-x---x---x-x---x---x-x------xxxx---xxxx----------------|
E|----3---3-3---5---5-5---6---6-6---8---8-8------5555---5555----------------|


Bridge 4x:
e|--------------------------------------------------------------------------|
B|--------------------------------------------------------------------------|
G|--------------------------------------------------------------------------|
D|----5~--------7~---------8~-------10~------------7~-----------------------|
A|--------------------------------------------------------------------------|
E|--------------------------------------------------------------------------|


Solo:
e|--------------------------------------------------------------------------|
B|-------------13-15-15b-13--10-8--------8----------------------------------|
G|----12h14-----------------------9~-------9~-------------------------------|
D|--------------------------------------------------------------------------|
A|--------------------------------------------------------------------------|
E|--------------------------------------------------------------------------|

e|----------------------------------------------------------------------------|
B|--------------13-15-15b-13--10-8------10-13-15-17-15-13-10------------------|
G|------12h14----------------------9~-----------------------------------------|
D|----------------------------------------------------------------------------|
A|----------------------------------------------------------------------------|
E|----------------------------------------------------------------------------|


e|--------------------------------------------------------------------------|
B|---------13s171717-15-13--------------------------------------------------|
G|--------------------------------------------------------------------------|
D|--------------------------------------------------------------------------|
A|--------------------------------------------------------------------------|
E|--------------------------------------------------------------------------|


7.Mad Sounds - Tabbed By *SugarDown*

Intro 

e|-----------5-~---6----------------3---3--5---|
B|--------------------6----6-------------------|  x2
G|----3-s-5------5-------5--------3-----3--5---|
D|---------------------------------------------|  
A|---------------------------------------------|
E|---------------------------------------------|

Verse 

e|-----------5-~------------3~-----------------|
B|---------------------------------------------|
G|----3-s-5-----------5-s-3--------------------|
D|---------------------------------------------|    x2
A|---------------------------------------------|
E|---------------------------------------------|


e|----3--5--6---10---8--6---5----------------------------------|
B|-----------------------------5---6---6------------8----------|
G|----3--5--6---10---8--6---6----6--------7-----7-----7--------|
D|-------------------------------------7-----7------8----8-----|
A|-------------------------------------------------------------|
E|-------------------------------------------------------------|

e|------------1---------------------------|
B|----------1------3----------------------|
G|-------2------------3-------------------|  x3
D|----3------------------3----------------|
A|--------------------------1~~-----------|
E|----------------------------------------|

          
e|------------1--------------------------|
B|----------1----------------------------|
G|-------2----------3--------------------|
D|----3----------------------------------|
A|---------------------------------------|
E|---------------------------------------|



e|----1-~------------------------------------------|
B|----1-~------3-----------------------------------|
G|----2-~------3-----------------------------------|   X2
D|----3-~------3-----------------------------------|
A|----3-~------1-----------------------------------|
E|----1-~------------------------------------------|

e|----1-~-----------------3----0----------------------|
B|----1-~------3----------3----1----------------------|
G|----2-~------3---x2-----3----0----x2----------------|   
D|----3-~------3----------5----2----------------------|
A|----3-~------1----------5----3----------------------|
E|----1-~-----------------3---------------------------|



And The O-La-LaLa  Part Is The Same As 


e|----1-~------------------------------------------|
B|----1-~------3-----------------------------------|
G|----2-~------3-----------------------------------|   X2
D|----3-~------3-----------------------------------|
A|----3-~------1-----------------------------------|
E|----1-~------------------------------------------|

8.Fireside - Tabbed By katerina.m.

intro: Dm

[Verse 1]

Dm              Dm
I can't explain but I wanna try
     Bb            Dm
There's this image of you and I
Bb
And it goes dancing by
Gm                            Dm
In the morning and the night time
Dm                        Dm
There's all these secrets I can't keep
Dm                         Dm 
Like in my heart there's that hotel suite
Bb
And you lived there so long
Gm                                  Dm
It's kind of strange now you're gone

[Chorus] 
 Dm                  Bb
I'm not sure if I should
                    Gm
Show you what I've found
G                Bb
Has it gone for good
                       Gm
Or is it coming back around?
Am                        Bb
Isn't it hard to make up your mind
Gm
When you're losing
                  Dm
And your fuse is Fireside

[Verse2]

Dm                       Dm
There's all those places we used to go
Dm                       Dm
And I suspect that you already know
Bb
But that place on memory lane
          G
You like still looks the same
                          Dm
But something about it's changed

[Chorus]

 Dm                  Bb
I'm not sure if I should
                    Gm
Show you what I've found
G                Bb
Has it gone for good
                       Gm
Or is it coming back around?
Am                         Bm
Isn't it hard to make up your mind
Gm
When you're losing
                  Dm
And your fuse is Fireside

[Bridge]
F         Bb          Gm    
And I thought I was yours, Forever
Bb                 Gm
Or maybe I was mistaken,
             Bb                    
But I just can't help manage to
                              Gm             Dm
Get through the day without thinking of you lately
 
Dm , Gm , Bb , Gm , Dm .

[Chorus]
Dm                Bb
I'm not sure if I should
            Gm           Dm
Show you what I've found
Dm               Bb
Has it gone for good
                       Gm
Or is it coming back around?
                         Bb
Isn't it hard to make up your mind
Gm
When you're losing
              Bb   F   Dm
And your fuse is Fireside

9.Why D'You Only Call Me When You're High - Tabbed By Heaneyboy

Intro/Verse
e|---------------------------|
B|---------------------------|
G|---------------------------|
D|---------------------------|
A|----4-5-5--2--4-2-0--------|
E|-2-------------------------|

Chorus
e|-------------------------------------|
B|-------2-3-5-3-2-------2-------------|
G|---2-4-----------4-2-4---4-2---------|
D|-4---------------------------4-2-----|
A|-------------------------------------|
E|-------------------------------------|


Middle 8

D  Bm
            F#m                                D    Bm
And I can't see you here, wondering where I might
         F#m                              D    Bm
It sorta feels like I'm running out of time
          F#m                             D    Bm
I haven't found what I was hoping to find
                   C#
You said you gotta be up in the morning, gonna have an early night
And you're starting to bore me, baby, why'd you only call me when you're high?

10.Snap Out Of It - Tabbed By Meyrio

Am
What's been happening in your world?
Am
What have you been up to?
Dm
I heard that you fell in love, or near enough
Dm                           E
I gotta tell you the truth

F
I wanna grab both your shoulders and shake, baby
Am              C
Snap out of it
F
I get the feeling I left it too late, but baby
Am              C
Snap out of it
F
If that watch don't continue to swing
       Am               C
Or the fat lady fancies having a sing
F                                                  E
I'll be here waiting ever so patiently for you to
    Dm    C   B    Am
Snap    out   of   it

Am
Forever isn't for everyone
Am
Is forever for you?
Dm
It sounds like settling down or giving up
Dm                                     E
But it don't sound much like you, girl

F
I wanna grab both your shoulders and shake, baby
Am              C
Snap out of it
F
I get the feeling I left it too late, but baby
Am              C
Snap out of it
F
If that watch don't continue to swing
       Am               C
Or the fat lady fancies having a sing
F                                                  E
I'll be here waiting ever so patiently for you to
    Dm    C   B    Am
Snap    out   of   it

Am
Under a spell you're hypnotized
Am
Darling how could you be so blind?
Am
Under a spell you're hypnotized
Am                          E
Darling how could you be so blind?


F
I wanna grab both your shoulders and shake, baby
Am              C
Snap out of it
F
I get the feeling I left it too late, but baby
Am              C
Snap out of it
F
If that watch don't continue to swing
       Am               C
Or the fat lady fancies having a sing
F                                                  E
I'll be here waiting ever so patiently for you to
    Dm    C   B    Am
Snap    out   of   it

11.Knee Socks - Tabbed By Xnimez

Intro

e|----------7----------7---------7------------------7---------7---------|
B|----8-/10------8-/10-----8\--------8-10-8----8---------8---------8----|
G|-/9---------/9---------9-----7---9--------/9---/5---/9---/5---/9------|
D|----------------------------------------------------------------------|
A|----------------------------------------------------------------------|
E|----------------------------------------------------------------------|
                              |           | 
                            e|---------------|
                            B|---------------|
                            G|---4-----------|
                            D|-------5-7-5---|
                            A|-5---7---------|
                            E|---------------|

e|-------------------|            e|-------------|
B|-------------------|            B|-------------|
G|--4/7-9/11-12\11---|            G|-------------|
D|-------------------|            D|---0-2/4-5\4-|
A|-------------------|            A|-2-----------|
E|-------------------|            E|-------------|


e|----------7----------7---------7--------------------------------------|
B|----8-/10------8-/10-----8\--------8-10-8----8------8/10--12\10--8----|
G|-/9---------/9---------9-----7---9--------/9---5/9-----------------9\-|
D|----------------------------------------------------------------------|
A|----------------------------------------------------------------------|
E|----------------------------------------------------------------------|
                              |           | 
                            e|---------------|
                            B|---------------|
                            G|---4-----------|
                            D|-------5-7-5---|
                            A|-5---7---------|
                            E|---------------|

e|--------------------------|            e|---------------------|
B|--------------------------|            B|---------------------|
G|-4/7--9/11--12\11--9/11\--|            G|---------------------|
D|--------------------------|            D|---0--2/4--5\4--0-2--|
A|--------------------------|            A|-2-------------------|
E|--------------------------|            E|---------------------|


e|-7--|
B|-8--|
G|-9--|
D|-9--|
A|-7--|
E|----|

e|-12---10----8----7--|
B|-12---10----8----7--|
G|-12---11----9----8--|
D|-14---12----10---9--|
A|-14---12----10---9--|
E|-12---10----8----7--|

Chorus 1

Verse 2

Chorus 2

e|-5----8----7----10----8----7-|
B|-5----8----8----10----8----7-|
G|-5----9----9----11----9----8-|
D|-7----10---9----12----10---9-|
A|-7----10---7----12----10---9-|
E|-5----8---------10----8----7-|

Chorus 3/Outro

12. I Wanna Be Yours - Tabbed By monti_36

Em - Am - Bm x2

Em
I wanna be your vacuum cleaner
Am                Bm
breathing in your dust
Em
I wanna be your Ford Cortina
Am           Bm
I will never rust
Em
If you like your coffee hot
Am                    Bm
let me be your coffee pot
Em
You call the shots babe
       Am            Bm
I just wanna be yours

Am             Bm
Secrets I have held in my heart
Em            Am
are harder to hide than I thought
Am           Bm
Maybe I just wanna be yours
  Em
I wanna be yours
  D                C
I wanna be yo-o-o-o-ooours...
                  Em
Wanna be yo-o-o-o-ooours...
D                C
Wanna be yo-o-o-o-ooours...
                  Bm
Wanna be yo-o-o-o-ours...

Em
Let me be your leccy meter
Am                 Bm
And I'll never run out
    Em
Let me be the portable heater
Am                       Bm
That you’ll get cold without
Em
I wanna be your setting lotion (Wanna be...)
Am                        Bm
hold your hair in deep devotion (How deep...?)
N.E.
At least as deep as the Pacific ocean
  Am            Bm
I wanna be yours

Am             Bm
Secrets I have held in my heart
Em            Am
are harder to hide than I thought
Am           Bm
Maybe I just wanna be yours
  Em
I wanna be yours
  D                C
I wanna be yo-o-o-o-ooours...
                  Em
Wanna be yo-o-o-o-ooours...
D                C
Wanna be yo-o-o-o-ooours...
                  Em
Wanna be yo-o-o-o-ours...
D                C
Wanna be yo-o-o-o-ooours...
                  Em
Wanna be yo-o-o-o-ooours...
D                C
Wanna be yo-o-o-o-ooours...
                  Em     D
Wanna be yo-o-o-o-ours...
C
Wanna be your vacuum cleaner
Em                D
breathing in your dust
C
I wanna be your Ford Cortina
Em         D
I'll never rust
       C
I just wanna be yours
       Em            D
I just wanna be yours
       C               Bm
I just wanna be yours...
comments
print report bad tab
7 comments total. Showing first comments.
0 reply
JoshElliott27 wrote on December 10 2013, 08:43 pm

Pretty good, thanks man.

+4 reply
lukas.tilch wrote on December 26 2013, 07:24 am

If you look at a live performanece you'll see that it is played like this
source (http://www.youtube.com/watch?v=4Q_9dXLkC3Y)

R U Mine
e|------------------------------x3|--------------------------------x1|
B|--------------------------------|----------------------------------|
G|--------------------------------|----------------------------------|
D|--------------------------------|----------------------------------|
A|----------------5--5-5-4-2-2/14-|----------------5--5-5-4-2--2-2-0-|
E|-2--2-2-7h9-7h9-----------------|-2--2-2-7h9-7h9-------------------|

Verse 1:
e|--------------------------------------x2|
B|----------------------------------------|
G|----------------------------------------|
D|----------------7-----------------------|
A|------------7h9---9-7-5--5-5-4-2--2-2-0-|
E|-2--2-2-7h9-----------------------------|

and further on it's not 2h4 on A, it's 7h9 on E.

-2 reply
darknightza wrote on January 5 2014, 05:25 pm

Why play it like that? it the same and its easier to play it on the same fingering pattern

I want to post or [tab]
guest
You may want to rate the tab now too:
select rating
Please do not post tabs as comments. Select "correction" instead!