Oops, an error
Loading. Please wait.

Bad Thing Bass Tab

ver2
ver2

Whole song

Interactive

More versions @911Tabs.com
263 views 3 this week
no commentswrite comment
1 2 3 4 5
please rate
Autoscroll
+/-
esc
set tempo
stop
Contributor
WARNING: You are trying to view
                                    content from Ultimate-Guitar.com
                                    in an unauthorized application,
                                    which is prohibited.

                                    Please use an official Ultimate
                                    Guitar Tabs application for iPhone,
                                    iPad or Android to access legitimate
                                    chords, guitar, bass, and drum tabs
                                    from Ultimate-Guitar.com database.

                                    Type "ultimate guitar tabs" in Apple
                                    App Store's or Android Market's
                                    search to find the application.
Artist: Arctic Monkeys

Album: Favourite Worst Nightmare



All tabs by Pedro Zappa
-----------------------------------------------------------------------------
-----------------------------------------------------------------------------


10. The Bad Thing


Intro

G||--------------------|--------------------|
D||--------------------|--------------------|
A||-7------7-------7-7-|-7------7-------7-7-|
D||--------------------|--------------------|
    i    i    i    i     i    i    i    i
G||--------------------|--------------------|
D||--------------------|--------------------|
A||-2------2-------2-2-|-2------2-------2-2-|
D||--------------------|--------------------|
    i    i    i    i     i    i    i    i
G||--------------------|--------------------|
D||--------------------|--------------------|
A||-0------0-------0-0-|-0------0-------0-0-|
D||--------------------|--------------------|
    i    i    i    i     i    i    i    i
G||--------------------|--------------------||  
D||--------------------|--------------------||
A||--------------------|-9------9-------9-9-||
D||-5------5-------5-5-|--------------------||
    i    i    i    i     i    i    i    i
G||--------------------|--------------------|
D||--------------------|--------------------|
A||-7------7-------7-7-|-7------7-------7-7-|
D||--------------------|--------------------|
    i    i    i    i     i    i    i    i
G||--------------------|--------------------|
D||--------------------|--------------------|
A||-2------2-------2-2-|-2------2-------2-2-|
D||--------------------|--------------------|
    i    i    i    i     i    i    i    i
G||--------------------|--------------------|
D||--------------------|--------------------|
A||-0------0-------0-0-|-0------0-------0-0-|
D||--------------------|--------------------|
    i    i    i    i     i    i    i    i
G||--------------------|--------------------||  
D||--------------------|--------------------||
A||--------------------|--------------------||
D||-5------5-------5-5-|-4------4-------4-4-||
    i    i    i    i     i    i    i    i

Verse 1

(wait)

G||--------------------|--------------------|
D||--------------------|------------7-------|
A||-5----5----55---5---|-0----0----0----0---|
D||--------------------|--------------------|
    i    i    i    i     i    i    i    i
G||--------------------|---------------------||
D||--------------------|-----------7-9--10-7-||
A||-5----5----55---5---|-0----0--------------||
E||--------------------|---------------------||
    i    i    i    i     i    i    i    i

G||--------------------|--------------------|  x3
D||--------------------|--------------------|
A||-5--5---55-5--5---55|-0--0---00-0--0---00|
D||--------------------|--------------------|
    i    i    i    i     i    i    i    i
G||--------------------|--------------------|
D||-5----5----5----5---|-5----5----5----5---|
A||--------------------|--------------------|
D||--------------------|--------------------|
    i    i    i    i     i    i    i    i
G||--------------------|--------------------|
D||-4----4----4----4---|-4------------------|
A||--------------------|--------------------|
D||--------------------|--------------------|
    i    i    i    i     i    i    i    i

Chorus 1

G||--------------------|----------------------|
D||--------------------|----------------------|
A||-7------7-------7-7-|-12-----10------10-10-|
D||--------------------|----------------------|
    i    i    i    i     i    i    i    i
G||--------------------|--------------------|
D||--------------------|--------------------|
A||-2------2-------2-2-|-5------3-------2-2-|
D||--------------------|--------------------|
    i    i    i    i     i    i    i    i
G||--------------------|--------------------|
D||--------------------|--------------------|
A||-0------0-------0-0-|-0------0-------0-0-|
D||--------------------|--------------------|
    i    i    i    i     i    i    i    i
G||--------------------|--------------------||  
D||--------------------|--------------------||
A||--------------------|-9------9-------9-9-||
D||-5------5-------5-5-|--------------------||
    i    i    i    i     i    i    i    i
G||--------------------|----------------------|
D||--------------------|----------------------|
A||-7------7-------7-7-|-12-----10------10-10-|
D||--------------------|----------------------|
    i    i    i    i     i    i    i    i
G||--------------------|--------------------|
D||--------------------|--------------------|
A||-2------2-------2-2-|-5------3-------2-2-|
D||--------------------|--------------------|
    i    i    i    i     i    i    i    i
G||--------------------|--------------------|
D||--------------------|--------------------|
A||-0------0-------0-0-|-0------0-------0-0-|
D||--------------------|--------------------|
    i    i    i    i     i    i    i    i
G||--------------------|--------------------||  
D||--------------------|--------------------||
A||--------------------|--------------------||
D||-5------5-------5-5-|-4------4-------4-4-||
    i    i    i    i     i    i    i    i

Verse  2

G||--------------------|--------------------|
D||--------------------|--------------------|
A||--------------------|-0----00---00---00--|
D||-0----00---0----00--|--------------------|
    i    i    i    i     i    i    i    i
G||--------------------|--------------------|
D||--------------------|--------------------|
A||--------------------|-0----00---0-2--3-0-|
D||-0----00---0----00--|--------------------|
    i    i    i    i     i    i    i    i
G||--------------------|--------------------|
D||--------------------|--------------------|
A||--------------------|-0----00---00---00--|
D||-0----00---0----00--|--------------------|
    i    i    i    i     i    i    i    i
G||--------------------|--------------------|
D||--------------------|--------------------|
A||--------------------|-0----00---0--------|
D||-0----00---0----00--|--------------------|
    i    i    i    i     i    i    i    i

G||--------------------|--------------------|
D||--------------------|--------------------|
A||-5----5----55---5---|-0----0----00---0---|
D||--------------------|--------------------|
    i    i    i    i     i    i    i    i
G||--------------------|---------------------||
D||--------------------|-----------7-9--10-7-||
A||-5----5----55---5---|-0----0--------------||
D||--------------------|---------------------||
    i    i    i    i     i    i    i    i

G||--------------------|--------------------|
D||--------------------|--------------------|
A||-5----5----5----5---|-5----5----5----5---|
D||--------------------|--------------------|
    i    i    i    i     i    i    i    i
G||--------------------|--------------------||  x3
D||--------------------|--------------------||
A||-0----0----0----0---|-0----0----0----0---||
E||--------------------|--------------------||
    i    i    i    i     i    i    i    i
G||--------------------|--------------------|
D||-5----5----5----5---|-5----5----5----5---|
A||--------------------|--------------------|
D||--------------------|--------------------|
    i    i    i    i     i    i    i    i
G||--------------------|--------------------|
D||-4----4----4----4---|-4------------------|
A||--------------------|--------------------|
D||--------------------|--------------------|
    i    i    i    i     i    i    i    i

Outro

G||--------------------|--------------------|
D||--------------------|--------------------|
A||--------------------|--------------------|
D||-2------2-------2-2-|-2------2-------2-2-|
    i    i    i    i     i    i    i    i
G||--------------------|--------------------|
D||--------------------|--------------------|
A||-2------2-------2-2-|-2------2-------2-2-|
D||--------------------|--------------------|
    i    i    i    i     i    i    i    i
G||--------------------|--------------------|
D||--------------------|--------------------|
A||-0------0-------0-0-|-0------0-------0-0-|
D||--------------------|--------------------|
    i    i    i    i     i    i    i    i
G||--------------------|--------------------||  
D||--------------------|--------------------||
A||--------------------|-9------9-------9-9-||
D||-5------5-------5-5-|--------------------||
    i    i    i    i     i    i    i    i
G||--------------------|--------------------|
D||--------------------|--------------------|
A||--------------------|--------------------|
D||-2------2-------2-2-|-2------2-------2-2-|
    i    i    i    i     i    i    i    i
G||--------------------|--------------------|
D||--------------------|--------------------|
A||-2----2----2----2---|-2----2----2----2---|
D||--------------------|--------------------|
    i    i    i    i     i    i    i    i
G||--------------------|--------------------|
D||--------------------|--------------------|
A||-0---------0--------|-0---------0--------|
D||--------------------|--------------------|
    i    i    i    i     i    i    i    i
G||--------------------|--------------------|
D||--------------------|--------------------|
A||--------------------|--------------------|
D||-5------------------|-4------------------|
    i    i    i    i     i    i    i    i
G||--------------------||
D||--------------------||
A||--------------------||
D||-2------------------||
    i    i    i    i  


Tab by Pedro Zappa
-----------------------------------------------------------------------------
-----------------------------------------------------------------------------
comments
We did not receive enough feedback on this tab! Please rate:
print report bad tab
1 2 3 4 5
I want to post or [tab]
guest
You may want to rate the tab now too:
select rating
Please do not post tabs as comments. Select "correction" instead!