Oops, an error
Loading. Please wait.

Bet That You Look Good On The Dancefloor Bass Tab

7,078 views 6 this week
no commentswrite comment
1 2 3 4 5
accurate
x 5
Autoscroll
+/-
esc
set tempo
stop
Contributor
Difficulty
novice
WARNING: You are trying to view
                                    content from Ultimate-Guitar.com
                                    in an unauthorized application,
                                    which is prohibited.

                                    Please use an official Ultimate
                                    Guitar Tabs application for iPhone,
                                    iPad or Android to access legitimate
                                    chords, guitar, bass, and drum tabs
                                    from Ultimate-Guitar.com database.

                                    Type "ultimate guitar tabs" in Apple
                                    App Store's or Android Market's
                                    search to find the application.
This tab is farely accurate and is easy to learn.
ENJOY!!!



Intro
G|----------------------------------------------------------------------|
D|----------------------------------------------------------------------|
A|----------------------------------------------------------------------|
E|---22---------------22-----------0-22-----------22--------------------|

G|----------------------------------------------------------------------|
D|----------------------------------------------------------------------|
A|----------------------------------------------------------------------|
E|---0-22---------------22-----------0-22-----------22------0-----------|

G|--------------------------------------------------------------------|
D|--------------------------------------------------------------------|
A|--------------------------------------------------------------------|  x2
E|--2-2-2-2-2-2-2-2-2-2-2-2-2-2-2-2-2-2-2-2-2-2-2-2-2-2-2-2-2-2-2-2---|

G|-----------------------------------------|
D|-----------------------------------------|
A|--4--(4)--2-2--2---0-0-------------------|  x4
E|----------------------2------------------|


Verse
G|-----------------------------------------|
D|-----------------------------------------|
A|--4--(4)--2-2--2---0-0-------------------|  x3
E|----------------------2------------------|

G|---------------------------------------|
D|---------------------------------------|
A|--4--(4)--2-2--2---0-0-----------------|
E|----------------------2--2-------------|

G|-----------------------------------------|
D|-----------------------------------------|
A|--4--(4)--2-2--2---0-0-------------------|  x3
E|----------------------2------------------|

G|----------------------------------------|
D|----------------------------------------|
A|--4--(4)--2-2--2---0-0------------------|
E|----------------------2--2--------------|


Chorus
G|--------------------------------------------------------------------|
D|------------2---------------2---------------2---------------2-------|
A|----------4---4-----------4---4---0---0---4---4---0---0---4---4-----|
E|--2---2-----------2---2---------------------------------------------|

G|--------------------------------------------------------------------|
D|------------2---------------2-----------------2---4-4-4--2----------|
A|----------4---4-----------4---4-----------4-----------------4--2----|
E|--0---0-----------0---0-----------2---2-----------------------------|

G|--------------------------------------------------------------------|
D|------------2---------------2---------------2---------------2-------|
A|----------4---4-----------4---4---0---0---4---4---0---0---4---4-----|
E|--2---2-----------2---2---------------------------------------------|

G|--------------------------------------------------------------------|
D|------------2---------------2---------------------------------------|
A|----------4---4-----------4---4---4-4-4-4-4-4-4-4-4-4-4-4-4-4-4-4---|
E|--0---0-----------0---0---------------------------------------------|


Riff
G|-----------------------------------------|
D|-----------------------------------------|
A|--4--(4)--2-2--2--0-0--------------------|  x4
E|---------------------2-------------------|


Verse
G|-----------------------------------------|
D|-----------------------------------------|
A|--4--(4)--2-2--2---0-0-------------------|  x3
E|----------------------2------------------|

G|---------------------------------------|
D|---------------------------------------|
A|--4--(4)--2-2--2-----0-0---------------|
E|------------------------2--2-----------|

G|-----------------------------------------|
D|-----------------------------------------|
A|--4--(4)--2-2--2-----0-0-----------------|  x3
E|------------------------2----------------|

G|---------------------------------------|
D|---------------------------------------|
A|--4--(4)--2-2--2-----0-0---------------|
E|------------------------2--2-----------|


Chorus
G|--------------------------------------------------------------------|
D|------------2---------------2---------------2---------------2-------|
A|----------4---4-----------4---4---0---0---4---4---0---0---4---4-----|
E|--2---2-----------2---2---------------------------------------------|

G|--------------------------------------------------------------------|
D|------------2---------------2-----------------2---4-4-4--2----------|
A|----------4---4-----------4---4-----------4-----------------4--2----|
E|--0---0-----------0---0-----------2---2-----------------------------|

G|--------------------------------------------------------------------|
D|------------2---------------2---------------2---------------2-------|
A|----------4---4-----------4---4---0---0---4---4---0---0---4---4-----|
E|--2---2-----------2---2---------------------------------------------|

G|--------------------------------------------------------------------|
D|------------2---------------2---------------------------------------|
A|----------4---4-----------4---4---4-4-4-4-4-4-4-4-4-4-4-4-4-4-4-4---|
E|--0---0-----------0---0---------------------------------------------|


Post Chorus
G|--------------------------------------------------------------------|
D|--------------------------------------------------------------------|
A|--------------------------------------------------------------------|
E|--5-5-5-5-5-5-5-5-5-5-5-5-5-5-5-5-0-0-0-0-0-0-0-0-0-0-0-0-0-0-0-0---|

G|--------------------------------------------------------------------|
D|--------------------------------------------------------------------|
A|--------------------------------------------------------------------|
E|--2-2-2-2-2-2-2-2-2-2-2-2-2-2-2-2-2-2-2-2-2-2-2-2-2-2-2-2-2-2-2-2---|

G|--------------------------------------------------------------------|
D|--------------------------------------------------------------------|
A|--------------------------------------------------------------------|
E|--5-5-5-5-5-5-5-5-5-5-5-5-5-5-5-5-0-0-0-0-0-0-0-0-0-0-0-0-0-0-0-0---|


G|----------------------------------------------------------------------|
D|----------------------------------------------------------------------|
A|----------------------------------------------------------------------|
E|---22---------------22-----------0-22-----------22--------------------|

G|----------------------------------------------------------------------|
D|----------------------------------------------------------------------|
A|----------------------------------------------------------------------|
E|---0-22---------------22-----------0-22-----------22------0-----------|

G|--------------------------------------------------------------------|
D|--------------------------------------------------------------------|
A|--------------------------------------------------------------------|
E|--2-2-2-2-2-2-2-2-2-2-2-2-2-2-2-2-2-2-2-2-2-2-2-2-2-2-2-2-2-2-2-2---|

G|----------------------------------------------------------------------------|
D|----------------------------------------------------------------------------|
A|----------------------------------------------------------------------------|
E|--2-2-2-2-2-2-2-2-2-2-2-2-2-2-2-2-2-2-2-2-2-2-2-2-14-14-14-14-14-14-14-14---|


Chorus
G|-------------------------------------------------------------|
D|-------------------------------------2---------------2-------|
A|---------------------------0---0---4---4---0---0---4---4-----|
E|--2----------------------------------------------------------|

G|--------------------------------------------------------------------|
D|------------2---------------2-----------------2---4-4-4--2----------|
A|----------4---4-----------4---4-----------4-----------------4--2----|
E|--0---0-----------0---0-----------2---2-----------------------------|

G|--------------------------------------------------------------------|
D|------------2---------------2---------------2---------------2-------|
A|----------4---4-----------4---4---0---0---4---4---0---0---4---4-----|
E|--2---2-----------2---2---------------------------------------------|

G|--------------------------------------------------------------------|
D|------------2---------------2---------------------------------------|
A|----------4---4-----------4---4---4-4-4-4-4-4-4-4--4-4--4-4--4------|
E|--0---0-----------0---0-----------------------------------------2---|
comments
print report bad tab
I want to post or [tab]
guest
You may want to rate the tab now too:
select rating
Please do not post tabs as comments. Select "correction" instead!