Oops, an error
Loading. Please wait.

Brianstorm Tab

ver6
ver6
More versions @911Tabs.com
13,225 views 129 this week
1 commentread comment
1 2 3 4 5
accurate
x 4
Autoscroll
+/-
esc
set tempo
stop
Difficulty
intermediate
WARNING: You are trying to view
                                    content from Ultimate-Guitar.com
                                    in an unauthorized application,
                                    which is prohibited.

                                    Please use an official Ultimate
                                    Guitar Tabs application for iPhone,
                                    iPad or Android to access legitimate
                                    chords, guitar, bass, and drum tabs
                                    from Ultimate-Guitar.com database.

                                    Type "ultimate guitar tabs" in Apple
                                    App Store's or Android Market's
                                    search to find the application.
SONG: Brianstorm
ARTIST: Arctic Monkeys
WRITTEN BY: Alex Turner And Arctic Monkeys
TRANSCRIBED BY: Gabriel Lopez

All Rights Belong Too Arctic Monkeys And Domino Record

Any Questions E-Mail Me At: Gbalo51@hotmail.com

COMENTARY: From My Point Of View This is a Very Accurate Tablature Almost a 100%, 
It's Been analyzed with Headphones And Live Videos.


STANDARD TUNING:  E-B-G-D-A-E

----------------------------------------------------------------------------

INTRO:

Guitar 2: Jamie Cook
E|---------------------------------------------|
B|---------------------------------------------|
G|---------------------------------------------|    
D|---------------------------------------------|     
A|---------------------------------------------|
E|-11111111211111111211111111211111111211111112|
Most People Dont hear this 2nd Fret Break but trust me it's there. And It maybe 
only belong to the Studio version. The Live Version May only be Ones 111111

Guitar 1: Alex Turner

Does some scratching on The E 6th Chord and the A 5th Chord And then:
e|---------------------------------------|
B|---------------------------------------|
G|---------------------------------------|    
D|---------------------------------------|     
A|-----8888888-888888888--888888888------|
E|------------9---------9----------9-----|
(Tremolo Pick These Parts And Let Ring on 9th Fret for very little Time)

Guitar 2: Jamie Cook stops here And Then:

Guitar 1: Alex Turmer 
e|------------------------------------|
B|------------------------------------|
G|------------------------------------|    
D|------------------------------------|     
A|888-4-333-0-444-6-777-10------------|
E|------------------------------------|
(Tremolo Pick the threesomes and let ring for very little time on the single notes)

-------------------------------------------------------------------------------

Verse 1

Both guitars

e|-------------------------------------------|
B|-------------------------------------------|
G|-10--6/5--6-6\8\9----12/10--6/5--6-6\8\9---|    
D|-10--6/5--6-6\8\9----12/10--6/5--6-6\8\9---|     
A|--8--4/3--4-4\6\7----10/-8--4/3--4-4\6\7---|
E|------------------------------------------|   
(Slide Through Each Power Chord Fast And Make a brief Stop on Power Chord 9-9-7 
And Slide Very Fast to Power Chord 12-12-10. Listen To the song to get the timing 
Right)


“Brian...”
Guitar 1: Alex Turner
e|-----------------------|
B|-----------------------|
G|-----------------------|    
D|-----------------------|     
A|--8--4-3--4-4-6-7------|
E|-----------------------|

Then both guitars continue doing the verse part


“And i wonder...”

Guitar 1: Alex Turner Continues Verse part
Guitar 2: Jamie Cook Stops Doing The verse and continues doing this
e|-----------------------------|
B|-----------------------------|
G|-10-10--10--10-10--10--10-10-|    
D|-10-10--10--10-10--10--10-10-|     
A|--8--8---8---8--8---8---8--8-|
E|-----------------------------|

------------------------------------------------------------

Bridge 1:

Guitar 2: Jamie Cook Scratches On The E 6th Chord And A 5th Chord Like At The 
Begining At Minute: 1:09 And stops at 1:11, And Continues To Verse 2

Note: Jamie Does It on the video but Alex does it on every Live Gig.

-----------------------------------------------------------------------------

Verse 2:


“Some want to kiss some want to kick you..”

Guitar 2: Jamie Cook Repeats Verse

Guitar 1: Alex Turmer Starts Tremolo Picking Like At The beginning Right After The Intro

e|------------------------------------|
B|------------------------------------|
G|------------------------------------|    
D|------------------------------------|    
A|888-4-333-0-444-6-777-10------------| 
E|------------------------------------|
(Tremolo Pick the threesomes and let ring for very little time on the single notes)


“She’ll be saying ‘use me’... ”

Guitar 1: Continues The Same Tremolo Picking, Basically Repeat 8 Times from The moment you started

Guitar 2: Jamie Cook Stops The Verse Part And Starts some type of Solo
e|-------------------8-7-----------------------------------|
B|-9-6-6-6-6-6-6-6-6-----9-8--6-6-6-6-6-6-6-6--------------| 
G|---------------------------------------------------------|
D|---------------------------------------------------------|     
A|---------------------------------------------------------|
E|---------------------------------------------------------|
Repeat This 4 Times   And end It on:

e|--------------------------------|
B|--7-7-7-7-7-7-7-7---------------|
G|--------------------------------|    
D|--------------------------------|     
A|--------------------------------|
E|--------------------------------|
Only right after picking on B in the 6th fret

NOTE: The Studio Version Solo Sounds On A more Higher Note Like 13th Fret In Minor 
E but Jamie Always plays this Live.


“I doubt its your style...”

Guitar 1: Alex Turner stops playing

Guitar 2: Jamie Cook Starts This Riff, He starts It only after bass repeats the 
same riff 2 times, He Starts At 1:39 And Finishes At 1:43 The RIff.
e|---------------------|
B|---------------------|
G|---------------------|    
D|---------------------|     
A|-4-3-----3-3---------| 
E|-----3-1----3-1------|


“Out to acquire...”

Guitar 1
e|--------------------------|
B|--------------------------|
G|-5-5-5-5-5-5-5-5-5-5-5-5--|    
D|-5-5-5-5-5-5-5-5-5-5-5-5--|     
A|-3-3-3-3-3-3-3-3-3-3-3-3--|
E|--------------------------|
Strum Fast, Don't tremolo Strum yet.

Guitar 2 : Jamie Cook Keeps Playing The Riff above End on Minute 1:44


“You are the unforcasted storm”

Both Guitars Tremolo Strum This Power Chord
e|---------------|
B|---------------|
G|-999999999999--|    
D|-999999999999--|     
A|-777777777777--|
E|---------------|

---------------------------------------------------------

Bridge 2:

Bass Solo Starts, Then:

Guitar 1: Alex Turner
e|-----------------------------------------|
B|-----------------------------------------|
G|---10-10-10-10-10--11--10-10-10-10-10--11|    
D|---10-10-10-10-10--11--10-10-10-10-10--11|     
A|----8--8--8--8--8---9---8--8--8--8--8---8|
E|-----------------------------------------|

Guitar 2: Jamie Cook                                                           
e|--------------------------------------------------|
B|--------------------------------------------------|
G|--------------------------------------------------|    
D|--------------------------------------------------|     
A|--------------------------------------------------|
E|-1111111111111111111111111111111111111111111111111|

Bass Solo Repeats, Then:

Guitar 1: Alex Turner
e|--------------------------------------------|
B|--------------------------------------------|
G|---10-10-10-10-10--11--10-10--10---10-10--11|    
D|---10-10-10-10-10--11--10-10--10---10-10--11|     
A|----8--8--8--8--8---9---8--8---8----8--8---9|
E|--------------------------------------------|

Guitar 2: Jamie Cook                                                           
e|--------------------------------------------------|
B|--------------------------------------------------|
G|--------------------------------------------------|    
D|--------------------------------------------------|     
A|--------------------------------------------------|
E|-111111111111111111111111\131313131313131313131313|

Repeat All Of This Until The End Of The Bridge.

-----------------------------------------------------------

Verse 3
 
“Calm collected and commandin’...”

Drum Solo

“...Thunder!...”

Guitar 1: Alex Turner Verse part

Guitar 2: Jamie Cook Play The Solo



"We'll See ya later Innovator"

Everything Stops

Outro

Guitar 2: Jamie Cook
E|----------------------------------------------|
B|----------------------------------------------|
G|----------------------------------------------|    
D|----------------------------------------------|     
A|----------------------------------------------|
E|-111111111211111111211111111211111111211111112|

Guitar 1: Alex Turner
e|-----------------------------------------------------------------|
B|-----------------------------------------------------------------|
G|-----------------------------------------------------------------|    
D|-----------------------------------------------------------------|     
A|----8888--8888--8888--8888--8888--8888--8888--8888888888888888/1-| Dont Pick 
E|--------9-----9------9----9-----9-----9------9-------------------|fret 1 just slide to it.


comments
print report bad tab
1 comment total.
0 reply
arcticNoris wrote on July 8 2011, 09:09 pm

this tab is perfect to me. finally someone did a worthy tab

I want to post or [tab]
guest
You may want to rate the tab now too:
select rating
Please do not post tabs as comments. Select "correction" instead!