Oops, an error
Loading. Please wait.

Do I Wanna Know Tab

ver1
ver1

Intro

Interactive

Video

More versions @911Tabs.com
602,075 views 7,162 this week
16 commentsread comments
1 2 3 4 5
accurate
x 49
Autoscroll
+/-
esc
set tempo
stop
Contributor
Hey! There's an official Ultimate Guitar app which is ideal
for learning songs when you're away from computer. Get the app
WARNING: You are trying to view
                                    content from Ultimate-Guitar.com
                                    in an unauthorized application,
                                    which is prohibited.

                                    Please use an official Ultimate
                                    Guitar Tabs application for iPhone,
                                    iPad or Android to access legitimate
                                    chords, guitar, bass, and drum tabs
                                    from Ultimate-Guitar.com database.

                                    Type "ultimate guitar tabs" in Apple
                                    App Store's or Android Market's
                                    search to find the application.
Arctic Monkeys-Do I wanna know?

Tabbed by Tim Van de Voorde

New song by Arctic Monkeys, I made this tab only by ear and very fast. There’s just 1 
live version on youtube for this moment, so if I have a better version, I will upgrade the tab!
*(First version on 24/05/13)*
*(Upgraded on 25/06/13)*

Short intro
E|------------|
B|------------|
G|------------|
D|------------|
A|---------1--|
E|-3~--1h3--3-|

Main riff (repeat through the whole song)
E|----------------------------------------------------------|
B|----------------------------------------------------------|
G|----------------------------------------------------------|
D|----------1h3-1~------------------------------------------|
A|---------1------3/5-3~--1h3/5-3~--33-3h5-3h5---------1----|
E|-3~--1h3-------------------------------------3~---1h3--3~-|

At a certain point (after 1.05) Alex does something like this
E|---------------------------------|
B|---------------------------------|
G|---------------------------------|
D|----------1h3-1~-----------------|
A|---------1------3/5-3~--1h3/5-3~-|
E|-3~--1h3-------------------------|

E|---------------------------------------------------|
B|---------------------------------------------------|
G|---------------------------------------------------|
D|---------------------------------------------------| (2x)
A|-5~---/10--6~--3h5-6-5-3~--1-3~--1h3/5---------1---|
E|--------------------------------------3~---1h3--3~-|

This are the main parts played by Jamie and Alex, just listen and you’ll find the order 
they’re played in.

On the end Jamie starts playing this part (after 3:27)
e|--------------------------|
B|--------------------------|
G|---14---14--15-17---14-15-|
D|-17---17------------------|
A|--------------------------|
E|--------------------------|
Tabbed by Tim Van de Voorde
comments
print report bad tab
16 comments total. Showing first comments.
0 reply
thinkinggrapes wrote on June 20 2013, 03:07 pm

Studio version is up on the Arctic Monkeys official YT channel :3

0 reply
Zottepee wrote on June 20 2013, 03:47 pm

I know, amazing as always!
I have exams this weeks,but I will try to update the tab this weekend, there are some small details I didn't hear in the live version :)

+1 reply
devilhiggins wrote on July 8 2013, 12:36 pm

amazing work here.

just a few things i think sound closer to the song...

try a hammer on for the "E|--3~-1h3--- "

sounds a bit better and is a bit easier in my opinion

and also hammer on pull off instead of slide "D|--1h3p1---"

and again for the immediate next bit "A|--3h5p3---"

and next bit after

"A|--1h3/5/3--33h5p3h5p3---"
"E|---------------------3--"

then as you have already done... sounds better to me but have been known to be wrong before :) if you don't like no harm done.

I want to post or [tab]
guest
You may want to rate the tab now too:
select rating
Please do not post tabs as comments. Select "correction" instead!