Oops, an error
Loading. Please wait.

Favourite Worst Nightmare Bass Tab

7,314 views 42 this week
no commentswrite comment
1 2 3 4 5
excellent!
x 4
add to favorites launch autoscroll
font size
0
reset
Autoscroll
+/-
esc
set tempo
stop
Contributor
WARNING: You are trying to view
                                    content from Ultimate-Guitar.com
                                    in an unauthorized application,
                                    which is prohibited.

                                    Please use an official Ultimate
                                    Guitar Tabs application for iPhone,
                                    iPad or Android to access legitimate
                                    chords, guitar, bass, and drum tabs
                                    from Ultimate-Guitar.com database.

                                    Type "ultimate guitar tabs" in Apple
                                    App Store's or Android Market's
                                    search to find the application.
Artist: Arctic Monkeys

Album: Favourite Worst Nightmare



All tabs by Pedro Zappa
-----------------------------------------------------------------------------
-----------------------------------------------------------------------------


1. Brianstorm


Intro

G||--------------------||  x16
D||--------------------||
A||-8--8---8--8--8---8-||
E||--------------------||
    i    i    i    i  
G||--------------------|--------------------|
D||--------------------|--------------------|
A||-8------------------|--------------------|
E||--------------------|--------------------|
    i    i    i    i     i    i    i    i

G||--------------------|--------------------||  x3
D||--------------------|--------------------||
A||-8------------------|-------6---7------10||
E||--------9--8--------|-9--9---------------||
    i    i    i    i     i    i    i    i
G||--------------------|--------------------||
D||--------------------|--------------------||
A||-8------------------|-------6---7--------||
E||--------9--8--------|-9--9---------------||
    i    i    i    i     i    i    i    i

Verse 1

(wait)

G||--------------------|--------------------||  x6
D||--------------------|--------------------||
A||-8------------------|-------6---7------10||
E||--------9--8--------|-9--9---------------||
    i    i    i    i     i    i    i    i
G||--------------------|--------------------||
D||--------------------|--------------------||
A||-8------------------|-------6---7--------||
E||--------9--8--------|-9--9---------------||
    i    i    i    i     i    i    i    i

(wait)

G||--------------------|--------------------||  x7
D||--------------------|--------------------||
A||-8------------------|-------6---7------10||
E||--------9--8--------|-9--9---------------||
    i    i    i    i     i    i    i    i
G||--------------------|--------------------||
D||--------------------|--------------------||
A||-8------------------|-------6---7--------||
E||--------9--8--------|-9--9---------------||
    i    i    i    i     i    i    i    i

Chorus 1

G||--------------------|--------------------||  x2
D||--------------------|--------------------||
A||-3------------------|-3--3-----------4---||
E||--------4--1--------|-------4---1--------||
    i    i    i    i     i    i    i    i
G||--------------------|--------------------|
D||--------------------|--------------------|
A||-3------------------|-3--3---------------|
E||--------4--1--------|-------4---1----4---|
    i    i    i    i     i    i    i    i

G||--------------------|--------------------||
D||--------------------|--------------------||
A||--------------------|--------------------||
E||-0-0--0-0--0-0--0-0-|-0-0--0-0--0-0--0-0-||
    i    i    i    i     i    i    i    i

G||-----------------------|---------------------------|
D||--------------------11-|-11-10--10--------11--11---|
A||-8-8--8-8--8-11--11----|-----------11--11--------11|
E||-----------------------|---------------------------|
    i    i    i     i       i      i      i      i
G||--------------------|--------------------||  x2
D||--------------------|--------------------||
A||------------------4-|-4-3--3------4--4-3-||
E||-1-1--1-1--1-4--4---|--------4--4--------||
    i    i    i    i     i    i    i    i

G||----------------------|--------------------||  x3
D||----------------------|--------------------||
A||-8-8--8-8--8-11--11-9-|-4-3--3------4--4-3-||
E||----------------------|--------4--4--------||
    i    i    i     i      i    i    i    i
G||----------------------|--------------------||
D||----------------------|-------------11---10||
A||-8-8--8-8--8-11--11-9-|-4-3--3-------------||
E||----------------------|--------4--4--------||
    i    i    i     i      i    i    i    i

(wait)

Verse 2

G||--------------------|--------------------||  x3
D||--------------------|--------------------||
A||-8------------------|-------6---7------10||
E||--------9--8--------|-9--9---------------||
    i    i    i    i     i    i    i    i
G||--------------------|--------------------||
D||--------------------|--------------------||
A||-8------------------|-------6---7--------||
E||--------9--8--------|-9--9---------------||
    i    i    i    i     i    i    i    i

(wait)

G||--------------------||  x8
D||--------------------||
A||-8--8---8--8--8---8-||
E||--------------------||
    i    i    i    i  
G||--------------------|--------------------|
D||--------------------|--------------------|
A||-8\-----------------|--------------------|
E||--------------------|--------------------|
    i    i    i    i     i    i    i    i


Tab by Pedro Zappa
-----------------------------------------------------------------------------
-----------------------------------------------------------------------------


2. Teddy Picker


Intro

G||--------------------||  x4
D||--------------------||
A||-----------6-5------||
E||-5----5-----------4-||
    i    i    i    i   
G||--------------------|--------------------||
D||--------------------|--------------------||
A||--------------------|------------------3-||
E||-0----0----4-0----0-|-0----0----4-0------||
    i    i    i    i     i    i    i    i
G||--------------------||  x2
D||--------------------||
A||-----------6-5------||
E||-5----5-----------4-||
    i    i    i    i   

Verse 1

G||--------------------||  x15
D||--------------------||
A||-----------6-5------||
E||-5----5-----------4-||
    i    i    i    i   
G||--------------------||
D||--------------------||
A||-----------6-5----0-||
E||-5----5-------------||
    i    i    i    i   

Chorus 1

G||--------------------|--------------------|
D||--------------------|--------------------|
A||--------------------|--------------------|
E||-1------1--1-1--1-1-|-0------0--0-0--0-0-|
    i    i    i    i     i    i    i    i
G||--------------------|--------------------|
D||--------------------|--------------------|
A||-----------6-5------|-----------6-5----0-|
E||-5----5-----------4-|-5----5-------------|
    i    i    i    i     i    i    i    i
G||--------------------|--------------------|
D||--------------------|--------------------|
A||--------------------|--------------------|
E||-1------1--1-1--1-1-|-0------0--0-0--0-0-|
    i    i    i    i     i    i    i    i
G||--------------------|--------------------|
D||--------------------|--------------------|
A||-6-6--6-6--6-6--6-6-|-6-6--6-6--6-6--6-6-|
E||--------------------|--------------------|
    i    i    i    i     i    i    i    i

Verse 2

G||--------------------||  x12
D||--------------------||
A||-------------6--5---||
E||-5------5--5--------||
    i    i    i    i   
G||--------------------||  x7
D||--------------------||
A||-----------6-5------||
E||-5----5-----------4-||
    i    i    i    i   
G||--------------------||
D||--------------------||
A||--------------------||
E||-5------------------||
    i    i    i    i   

Chorus 2

G||--------------------|--------------------|
D||--------------------|--------------------|
A||--------------------|--------------------|
E||------1-1--1-1--1-1-|-0----0-0--0-0--0-0-|
    i    i    i    i     i    i    i    i
G||--------------------|--------------------|
D||--------------------|--------------------|
A||-----------6-5------|-----------6-5----0-|
E||-5----5-----------4-|-5----5-------------|
    i    i    i    i     i    i    i    i
G||--------------------|--------------------|
D||--------------------|--------------------|
A||--------------------|-7------5-----------|
E||-1------1--1-1--1-1-|-----------8----7---|
    i    i    i    i     i    i    i    i
G||--------------------|--------------------|
D||--------------------|--------------------|
A||--------------------|--------------------|
E||-0------------------|--------------------|
    i    i    i    i     i    i    i    i

Solo

G||--------------------||  x12
D||--------------------||
A||-------------6--5---||
E||-5------5--5--------||
    i    i    i    i  
G||--------------------|--------------------||
D||--------------------|--------------------||
A||--------------------|----------------3---||
E||-0------0--0-4--0---|-0------0--0-4------||
    i    i    i    i     i    i    i    i
G||--------------------||  x2
D||--------------------||
A||-------------6--5---||
E||-5------5--5--------||
    i    i    i    i  

Chorus 3

G||--------------------|--------------------|
D||--------------------|--------------------|
A||--------------------|--------------------|
E||-1------1--1-1--1-1-|-0------0--0-0--0-0-|
    i    i    i    i     i    i    i    i
G||--------------------||  x2
D||--------------------||
A||-------------6--5---||
E||-5------5--5--------||
    i    i    i    i  
G||--------------------|--------------------|
D||--------------------|--------------------|
A||--------------------|--------------------|
E||-1------1--1-1--1-1-|-0------0--0-0--0-0-|
    i    i    i    i     i    i    i    i
G||--------------------||  x2
D||--------------------||
A||-------------6--5---||
E||-5------5--5--------||
    i    i    i    i  

G||--------------------|--------------------|
D||--------------------|--------------------|
A||--------------------|--------------------|
E||-1------------------|-0------------------|
    i    i    i    i     i    i    i    i
G||--------------------|--------------------|
D||--------------------|--------------------|
A||--------------------|--------------------|
E||-5------------------|-5-5--5-5--5-5--5-5-|
    i    i    i    i     i    i    i    i
G||--------------------|--------------------|
D||--------------------|--------------------|
A||--------------------|--------------------|
E||-1------------------|-0------------------|
    i    i    i    i     i    i    i    i
G||--------------------|--------------------|
D||--------------------|--------------------|
A||--------------------|-6-6--6-6--6-6--6-6-|
E||-5------------------|--------------------|
    i    i    i    i     i    i    i    i

Outro

G||--------------------||  x4
D||--------------------||
A||-----------6-5------||
E||-5----5-----------4-||
    i    i    i    i   
G||--------------------|--------------------||
D||--------------------|--------------------||
A||--------------------|------------------3-||
E||-0----0----4-0----0-|-0----0----4-0------||
    i    i    i    i     i    i    i    i
G||--------------------||
D||--------------------||
A||--------------------||
E||-----------5--------||
    i    i    i    i 


Tab by Pedro Zappa
-----------------------------------------------------------------------------
-----------------------------------------------------------------------------


3. D Is For Dangerous 


Intro

G||--------------------||
D||-10-----------------||
A||--------------------||
E||--------------------||
    i    i    i    i

(wait)
  
Verse 1

G||--------------------|-----------------------||  x4
D||------------------8-|-10-10--10-8-----------||
A||--------6--10--10---|--------------10--10-10||
E||-8-8--8-------------|-----------------------||
    i    i    i    i     i      i     i    i

Chorus 1

G||--------------------|--------------------|
D||--------------------|--------------------|
A||-8-8--8-8--8--6-----|-8-8--8-8--8--7--6--|
E||-----------------8--|--------------------|
    i    i    i    i     i    i    i    i
G||--------------------|--------------------|
D||--------------------|--------------------|
A||--------6--9---9--9-|--------6--9---9--9-|
E||-8----8-------------|-8----8-------------|
    i    i    i    i     i    i    i    i
G||--------------------|--------------------|
D||--------------------|--------------------|
A||-8-8--8-8--8--6-----|-8-8--8-8--8--7--6--|
E||-----------------8--|--------------------|
    i    i    i    i     i    i    i    i
G||--------------------|--------------------||
D||--------------------|--------------------||
A||--------6-----------|--------------------||
E||-8----8----6----6---|-4444-443-----------||
    i    i    i    i     i    i    i    i

Verse 2

G||--------------------|-----------------------||  x3
D||------------------8-|-10-10--10-8-----------||
A||--------6--10--10---|--------------10--10-10||
E||-8-8--8-------------|-----------------------||
    i    i    i    i     i      i     i    i
G||--------------------|--------------------|
D||--------------------|--------------------|
A||--------------------|--------------------|
E||-8------------------|--------------------|
    i    i    i    i     i    i    i    i

Solo

G||--------------------|-----------------------||  x8
D||------------------8-|-10-10--10-8-----------||
A||--------6--10--10---|--------------10--10-10||
E||-8-8--8-------------|-----------------------||
    i    i    i    i     i      i     i    i

Bridge

G||--------------------|--------------------||  x10
D||--------------------|--------------------||
A||--------6--10--10---|--------------------||
E||-8-8--8-----------6-|-8-8--8-6--3--3--3--||
    i    i    i    i     i    i    i    i
G||--------------------|-----------8--12-12-12---||  x8
D||------------------8-|-10-10--10-------------13||
A||--------6--10--10---|-------------------------||
E||-8-8--8-------------|-------------------------||
    i    i    i    i     i      i     i     i

Chorus 1

G||--------------------|--------------------|
D||--------------------|--------------------|
A||-8-8--8-8--8--6-----|-8-8--8-8--8--7--6--|
E||-----------------8--|--------------------|
    i    i    i    i     i    i    i    i
G||--------------------|--------------------||  x2
D||--------------------|--------------------||
A||--------6--9---9--9-|--------6--9---9--9-||
E||-8----8-------------|-8----8-------------||
    i    i    i    i     i    i    i    i

G||--------------------|--------------------|
D||--------------------|--------------------|
A||-8-8--8-8--8--6-----|-8-8--8-8--8--7--6--|
E||-----------------8--|--------------------|
    i    i    i    i     i    i    i    i
G||--------------------|--------------------|--------------------||
D||--------------------|--------------------|--------------------||
A||--------6--9---9--9-|--------6--9---9--9-|--9--9--9--9--9---9-||
E||-8----8-------------|-8----8-------------|--------------------||
    i    i    i    i     i    i    i    i     i    i    i    i

G||--------------------|--------------------|
D||--------------------|--------------------|
A||-8-8--8-8--8--6-----|-8-8--8-8--8--7--6--|
E||-----------------8--|--------------------|
    i    i    i    i     i    i    i    i
G||--------------------|--------------------||
D||--------------------|--------------------||
A||--------6-----------|--------------------||
E||-8----8----6----6---|-4444-443-----------||
    i    i    i    i     i    i    i    i


Tab by Pedro Zappa
-----------------------------------------------------------------------------
-----------------------------------------------------------------------------


4. Balaclava 


Intro

G||--------------------|--------------------||  x4
D||--------------------|--------------------||
A||------5----7----9---|------4---------5---||
E||-7------------------|-5---------3--------||
    i    i    i    i     i    i    i    i

Verse 1

G||--------------------|--------------------||  x2
D||--------------------|------11------------||
A||------5----7----9---|-12--------10---5---||
E||-7-7----------------|--------------------||
    i    i    i    i     i    i    i    i
G||--------------------|--------------------||
D||--------------------|--------------------||
A||------5----7----9---|------4---------5---||
E||-7------------------|-5---------3--------||
    i    i    i    i     i    i    i    i
G||--------------------|--------------------||
D||--------------------|------11------------||
A||------5----7----9---|-12--------10---5---||
E||-7-7----------------|--------------------||
    i    i    i    i     i    i    i    i

Chorus 1

G||--------------------|--------------------|
D||------4-0-----------|--------------------|
A||-2---2-----2--------|-02--02-0---------0-|
E||--------------------|-----------2-2--3---|
    i    i    i    i     i    i    i    i
G||--------------------|--------------------||  x2
D||------4-0-----------|--------------------||
A||-2222------2--------|--------------------||
E||--------------------|-35--35-3--2------/-||
    i    i    i    i     i    i    i    i


Verse 2

G||--------------------|--------------------||
D||--------------------|--------------------||
A||--------------------|------4---------5---||
E||--------------------|-5---------3--------||
    i    i    i    i     i    i    i    i
G||--------------------|--------------------||  x2
D||--------------------|------11------------||
A||------5----7----9---|-12--------10---5---||
E||-7-7----------------|--------------------||
    i    i    i    i     i    i    i    i
G||--------------------|----------------------||
D||--------------------|-------11-11----------||
A||------5----7----9---|-12-12----------------||
E||-7-7----------------|----------------------||
    i    i    i    i     i     i     i    i

Bridge

G||--------------------|--------------------|
D||-9-9--9-9--9-9--9-9-|-9-9--9-9--9-9--9-9-|
A||--------------------|--------------------|
E||--------------------|--------------------|
    i    i    i    i     i    i    i    i
G||--------------------|--------------------|
D||-7-7--7-7--7-7--7-7-|-7-7--7-7--7-7--7-7-|
A||--------------------|--------------------|
E||--------------------|--------------------|
    i    i    i    i     i    i    i    i
G||--------------------|--------------------||  
D||-5-5--5-5--5-5--5-5-|-4-4--4-4--4-4--4-4-||
A||--------------------|--------------------||
E||--------------------|--------------------||
    i    i    i    i     i    i    i    i
G||------11---------11---|------11----12-12--12-12-|| x2
D||-9-9-----9--9-9-----9-|-9-9-----9---------------||
A||----------------------|-------------------------||
E||----------------------|-------------------------||
    i    i     i    i      i    i     i      i
G||--------------------|--------------------|
D||-7-7--7-7--7-7--7-7-|-7-7--7-7--7-10-9-7-|
A||--------------------|--------------------|
E||--------------------|--------------------|
    i    i    i    i     i    i    i    i
G||--------------------|--------------------|
D||-5-5--5-5--5-5--5-7-|-4-4--4-4--4-4--4-4-|
A||--------------------|--------------------|
E||--------------------|--------------------|
    i    i    i    i     i    i    i    i

Chorus 2

G||--------------------|--------------------|
D||------4-0-----------|--------------------|
A||-2---2-----2--------|-02--02-0---------0-|
E||--------------------|-----------2-2--3---|
    i    i    i    i     i    i    i    i
G||--------------------|--------------------||  x2
D||------4-0-----------|--------------------||
A||-2222------2--------|--------------------||
E||--------------------|-35--35-3--2------/-||
    i    i    i    i     i    i    i    i

Verse 3

G||--------------------|--------------------||  x3
D||--------------------|------11------------||
A||------5----7----9---|-12--------10---5---||
E||-7-7----------------|--------------------||
    i    i    i    i     i    i    i    i
G||--------------------|--------------------||
D||--------------------|--------------------||
A||------5----7----9---|------4---------5---||
E||-7------------------|-5---------3--------||
    i    i    i    i     i    i    i    i
G||--------------------|--------------------||  x8
D||--------------------|------11------------||
A||------5----7----9---|-12--------10---5---||
E||-7-7----------------|--------------------||
    i    i    i    i     i    i    i    i

Outro

G||--------------------|--------------------||  x5
D||--------------------|--------------------||
A||--------5---------9-|-0------4---------5-||
E||-7-----------0------|-------------3------||
    i    i    i    i     i    i    i    i
G||--------------------|--------------------|
D||--------------------|--------------------|
A||--------5---------9-|--------------------|
E||-7-----------0------|--------------------|
    i    i    i    i     i    i    i    i
G||--------------------|--------------------||  x3
D||--------------------|--------------------||
A||--------5---------9-|-0------4---------5-||
E||-7-----------0------|-------------3------||
    i    i    i    i     i    i    i    i
G||--------------------|--------------------|
D||--------------------|--------------------|
A||--------5---------9-|--------------------|
E||-7-----------0------|--------------------|
    i    i    i    i     i    i    i    i


Tab by Pedro Zappa
-----------------------------------------------------------------------------
-----------------------------------------------------------------------------


5. Flourescent Adolescent 


Intro

G||--------------------|--------------------|
D||--------------------|--------------------|
A||-7-7--7-------------|-4-4--4-------------|
E||--------------------|--------------------|
    i    i    i    i     i    i    i    i
G||--------------------|--------------------|
D||-4-4--4-------------|--------------------|
A||--------------------|-2-2--2-------------|
E||--------------------|--------------------|
    i    i    i    i     i    i    i    i

G||--------------------|------6------6----4-|
D||--------------------|--------------------|
A||------7-----------2-|-4---------4----2---|
E||-0---------0-2--4---|--------------------|
    i    i    i    i     i    i    i    i
G||--------------------|------4------4------||
D||------4------4------|----------------6-4-||
A||------------------4-|-2---------2--------||
E||-2---------2----2---|--------------------||
    i    i    i    i     i    i    i    i

Verse 1

G||---------------------|-------------------------|
D||-------------------9-|-11-11--11-11----11----9-|
A||-7-7--7-7--7-9--11---|-------------------------|
E||---------------------|---------------9-----7---|
    i    i    i    i      i      i      i     i
G||---------------------|----------------------||  x2
D||------------------11-|-9-9--9-9-----9-------||
A||-9-9--9-9--9-9--9----|-----------11----11-9-||
E||---------------------|----------------------||
    i    i    i    i      i    i     i    i

Chorus 1

G||--------------------|--------------------|
D||--------------------|--------------------|
A||--------------------|---2--2-------------|
E||---2--2-------------|--------------------|
    i    i    i    i     i    i    i    i
G||--------------------|--------------------|
D||--------------------|--------------------|
A||--------------------|---2--2------2--2---|
E||---2--2------2--2---|--------------------|
    i    i    i    i     i    i    i    i
G||--------------------|--------------------|
D||--------------------|--------------------|
A||--------------------|-2-2--4-2----2--4-2-|
E||-2-2--4-2----2--4-2-|--------------------|
    i    i    i    i     i    i    i    i
G||--------------------|--------------------|
D||--------------------|--------------------|
A||--------------------|--------------------|
E||-2------------------|-5------------------|
    i    i    i    i     i    i    i    i

Verse 2

G||---------------------|--------------------------|
D||-------------------9-|-11-11--11-11--9-9--------|
A||-7-7--7-7--7-9--11---|--------------------11-11-|
E||---------------------|--------------------------|
    i    i    i    i      i      i      i    i
G||---------------------|----------------------||
D||------------------11-|-9-9--9-9-----9-------||
A||-9-9--9-9--9-9--9----|-----------11----11-9-||
E||---------------------|----------------------||
    i    i    i    i      i    i     i    i
G||---------------------|--------------------------|
D||-------------------9-|-11-11--11-11--9-9--------|
A||-7-7--7-7--7-9--11---|--------------------11-11-|
E||---------------------|--------------------------|
    i    i    i    i      i      i      i    i
G||---------------------|----------------------||
D||---------------------|----------------------||
A||-9-9--9--------------|----------------------||
E||---------------------|----------------------||
    i    i    i    i      i    i     i    i

Chorus 2 

G||--------------------|--------------------||  x2
D||--------------------|--------------------||
A||--------------------|-2-2--2-2--2-2--2-2-||
E||-2-2--2-2--2-2--2-2-|--------------------||
    i    i    i    i     i    i    i    i
G||--------------------|--------------------|
D||--------------------|--------------------|
A||--------------------|---2--2-------------|
E||---2--2-------------|--------------------|
    i    i    i    i     i    i    i    i
G||--------------------|--------------------|
D||--------------------|--------------------|
A||--------------------|--------------------|
E||-2-2--2-2--2-2--2-2-|-7-7--7-7--7-7--7-7-|
    i    i    i    i     i    i    i    i

Bridge

G||--------------------|--------------------|
D||--------------------|--------------------|
A||--------------------|------7----6----2---|
E||-4------4-----------|-4------------------|
    i    i    i    i     i    i    i    i
G||--------------------|--------------------|
D||--------------------|--------------------|
A||-4------4-----------|-4------4----4--4\--|
E||--------------------|--------------------|
    i    i    i    i     i    i    i    i
G||--------------------|--------------------|
D||--------------------|--------------------|
A||--------------------|------7----6----2---|
E||-2------2-----------|-2------------------|
    i    i    i    i     i    i    i    i
G||--------------------|--------------------|
D||--------------------|--------------------|
A||--------------------|--------------------|
E||-4------4-----------|-2------2-----------|
    i    i    i    i     i    i    i    i

Coda

G||--------------------|--------------------|
D||--------------------|--------------------|
A||-7-7--7-------------|-4-4--4-------------|
E||--------------------|--------------------|
    i    i    i    i     i    i    i    i
G||--------------------|--------------------||  x2
D||---4--4-----------4-|--------------------||
A||--------------------|-2-2--2-------------||
E||--------------------|--------------------||
    i    i    i    i     i    i    i    i
G||--------------------|--------------------|
D||--------------------|--------------------|
A||-7-7--7-------------|-4-4--4-------------|
E||--------------------|--------------------|
    i    i    i    i     i    i    i    i
G||--------------------|--------------------|--------------------||
D||-4-4--4-------------|--------------------|--------------------||
A||--------------------|-2-2--2-2--2-2--2-2-|-6-6--6-6--6-7--6-4-||
E||--------------------|--------------------|--------------------||
    i    i    i    i     i    i    i    i     i    i    i    i

G||--------------------|--------------------|
D||--------------------|--------------------|
A||------------------2-|-4-4--4-4--2-2------|
E||-0-0--0-0--0-2--4---|----------------4-4-|
    i    i    i    i     i    i    i    i
G||--------------------|--------------------||  x2
D||--------------------|--------------------||
A||------------------4-|-2-2--2-2----2------||
E||-2-2--2-2--2-2--2---|-----------4----4-2-||
    i    i    i    i     i    i    i    i
G||--------------------|------6------4------|
D||--------------------|------------------6-|
A||------7-----------2-|-4---------2--------|
E||-0---------0-2--4---|----------------4---|
    i    i    i    i     i    i    i    i
G||--------------------|------4------4------||  x2
D||------4------4------|----------------6-4-||
A||------------------4-|-2---------2--------||
E||-2---------2----2---|--------------------||
    i    i    i    i     i    i    i    i
G||--------------------|--------------------|
D||--------------------|--------------------|
A||-4------------------|--------------------|
E||--------------------|--------------------|
    i    i    i    i     i    i    i    i


Tab by Pedro Zappa
-----------------------------------------------------------------------------
-----------------------------------------------------------------------------


6. Only Ones Who Know 


Verse 1

(wait)

Chorus 1

G||--------------------|--------------------|
D||--------------------|--------------------|
A||--------------------|--------------------|
E||-6------------------|-6------------------|
    i    i    i    i     i    i    i    i
G||--------------------|--------------------|
D||--------------------|--------------------|
A||--------------------|-5------------------|
E||-5------------------|--------------------|
    i    i    i    i     i    i    i    i
G||--------------------|--------------------|
D||--------------------|--------------------|
A||--------------------|--------------------|
E||-3------------------|-6------------------|
    i    i    i    i     i    i    i    i

Verse 2

G||--------------------|--------------------|
D||--------------------|--------------------|
A||-----------4--------|-5---------3--------|
E||-1------------------|--------------------|
    i    i    i    i     i    i    i    i
G||--------------------|--------------------|
D||--------------------|--------------------|
A||-1------------------|-----------4--------|
E||-----------3--------|-1------------------|
    i    i    i    i     i    i    i    i
G||--------------------|--------------------|
D||--------------------|--------------------|
A||-5---------3--------|-1---------0--------|
E||--------------------|--------------------|
    i    i    i    i     i    i    i    i

G||--------------------||
D||--------------------||
A||--------------------||
E||-3------------------||
    i    i    i    i  

Chorus 2

G||--------------------|--------------------|
D||--------------------|--------------------|
A||--------------------|--------------------|
E||-6------------------|-6------------------|
    i    i    i    i     i    i    i    i
G||--------------------|--------------------|
D||--------------------|--------------------|
A||--------------------|-5------------------|
E||-5------------------|--------------------|
    i    i    i    i     i    i    i    i
G||--------------------|--------------------|
D||--------------------|--------------------|
A||--------------------|--------------------|
E||-3------------------|-6------------------|
    i    i    i    i     i    i    i    i

G||--------------------|--------------------|--------------------|
D||--------------------|--------------------|--------------------|
A||-8---------4--------|-5---------3--------|-1------------------|
E||--------------------|--------------------|-----------5--------|
    i    i    i    i     i    i    i    i     i    i    i    i

G||--------------------||  x4
D||--------------------||
A||--------------------||
E||-3---33----3---33---||
    i    i    i    i 
G||--------------------||
D||--------------------||
A||--------------------||
E||-1------------------||
    i    i    i    i  


Tab by Pedro Zappa
-----------------------------------------------------------------------------
-----------------------------------------------------------------------------


7. Do Me A Favour 


Intro

(wait)

G||----------------------|-----------------------||  x4
D||------7---9/11---11---|------7----11-11--11---||
A||-9------------------9-|---9-------------------||
E||----------------------|-----------------------||
    i    i     i    i      i    i    i      i

Verse 1

G||----------------------|-----------------------||  x16
D||------7---9/11---11---|------7----11-11--11---||
A||-9------------------9-|---9-------------------||
E||----------------------|-----------------------||
    i    i     i    i      i    i    i      i

G||----------------------|-----------------------|
D||------7---9/11---11---|------7----11-11--11---|
A||-9------------------9-|---9-------------------|
E||----------------------|-----------------------|
    i    i     i    i      i    i    i      i
G||----------------------|------------------------||  x4
D||------12----11----9---|------12----11-11--11-9-||
A||----------------------|------------------------||
E||-9-9----------------7-|---7--------------------||
    i    i     i     i     i    i     i      i

Chorus

G||--------------------|--------------------|
D||--------------------|--------------------|
A||-5-5--5-5--5-5--5-5-|-5-5--5-5--5-5--5-5-|
E||--------------------|--------------------|
    i    i    i    i     i    i    i    i
G||----------------6-6-|-9-9--7-7--6-6--4-4-||  x3
D||------7-7--9-9------|--------------------||
A||-9-9----------------|--------------------||
E||--------------------|--------------------||
    i    i    i    i     i    i    i    i
G||--------------------|--------------------|
D||--------------------|--------------------|
A||-5-5--5-5--5-5--5-5-|-5-5--5-5--5-5--5-5-|
E||--------------------|--------------------|
    i    i    i    i     i    i    i    i
G||--------------------|--------------------|
D||--------------------|--------------------|
A||-4-4--7-7--5-5--4-4-|-2-2-------0-0--2-2-|
E||--------------------|------2-2-----------|
    i    i    i    i     i    i    i    i
G||--------------------||
D||--------------------||
A||--------------------||
E||-2------------------||
    i    i    i    i  

(wait)

Bridge

G||--------------------|--------------------|
D||--------------------|--------------------|
A||--------------------|--------------------|
E||-2------------------|--------------------|
    i    i    i    i     i    i    i    i
G||--------------------|--------------------|
D||--------------------|--------------------|
A||--------------------|--------------------|
E||-0------------------|--------------------|
    i    i    i    i     i    i    i    i
G||--------------------|--------------------|
D||--------------------|--------------------|
A||-5------------------|--------------------|
E||--------------------|--------------------|
    i    i    i    i     i    i    i    i
G||--------------------|--------------------|
D||--------------------|--------------------|
A||-4------------------|--------------------|
E||--------------------|--------------------|
    i    i    i    i     i    i    i    i
G||--------------------|--------------------|
D||--------------------|--------------------|
A||-2------------------|--------------------|
E||--------------------|--------------------|
    i    i    i    i     i    i    i    i
G||--------------------|--------------------|
D||--------------------|--------------------|
A||-0------------------|--------------------|
E||--------------------|--------------------|
    i    i    i    i     i    i    i    i
G||--------------------|--------------------|
D||--------------------|--------------------|
A||--------------------|--------------------|
E||-4------------------|--------------------|
    i    i    i    i     i    i    i    i
G||--------------------|--------------------||
D||--------------------|--------------------||
A||-4------------------|--------------------||
E||--------------------|--------------------||
    i    i    i    i     i    i    i    i

Verse 2

G||--------------------|--------------------|
D||----------------7---|----------------7---|
A||-9----7----9--------|-9----7----9--------|
E||--------------------|--------------------|
    i    i    i    i     i    i    i    i
G||---------------------|--------------------||  x3
D||-----------------9---|----------------7---||
A||-9---------11-11-----|-9---------9--------||
E||------9--------------|------7-------------||
    i    i    i     i     i    i    i    i
G||--------------------|--------------------|
D||----------------7---|----------------7---|
A||-9----7----9--------|-9----7----9--------|
E||--------------------|--------------------|
    i    i    i    i     i    i    i    i
G||---------------------|--------------------|
D||-----------------9---|--------------------|
A||-9---------11-11-----|-9------------------|
E||------9--------------|--------------------|
    i    i    i     i     i    i    i    i

Solo

G||--------------------|--------------------|
D||--------------------|--------------------|
A||-5----5----5----5---|-5----5----5----5---|
E||--------------------|--------------------|
    i    i    i    i     i    i    i    i
G||----------------6-6-|-9-9--7-7--6-6--4-4-||  x4
D||------7-7--9-9------|--------------------||
A||-9-9----------------|--------------------||
E||--------------------|--------------------||
    i    i    i    i     i    i    i    i

Chorus 2

G||--------------------|--------------------|
D||--------------------|--------------------|
A||-5-5--5-5--5-5--5-5-|-5-5--5-5--5-5--5-5-|
E||--------------------|--------------------|
    i    i    i    i     i    i    i    i
G||--------------------|--------------------||  x3
D||--------------------|--------------------||
A||-9-9--9-9--9-9--9-9-|-4-4--4-4--4-4--4-4-||
E||--------------------|--------------------||
    i    i    i    i     i    i    i    i
G||--------------------|--------------------|
D||--------------------|--------------------|
A||-5-5--5-5--5-5--5-5-|-5-5--5-5--5-5--5-5-|
E||--------------------|--------------------|
    i    i    i    i     i    i    i    i
G||--------------------|--------------------|
D||--------------------|--------------------|
A||-4-4--7-7--5-5--4-4-|-2-2-------0-0--2-2-|
E||--------------------|------2-2-----------|
    i    i    i    i     i    i    i    i
G||--------------------||
D||--------------------||
A||--------------------||
E||-2------------------||
    i    i    i    i  


Tab by Pedro Zappa
-----------------------------------------------------------------------------
-----------------------------------------------------------------------------


8. This House Is A Circus 


Intro

(wait)

G||--------------------|--------------------|
D||--------------------|--------------------|
A||------------------5-|------------------5-|
E||-------------5--7---|-------------5--7---|
    i    i    i    i     i    i    i    i
G||--------------------|--------------------|
D||--------------------|--------------------|
A||------------------5-|--------------------|
E||-7\----------5--7---|--------------------|
    i    i    i    i     i    i    i    i

Verse 1

G||--------------------|--------------------||  x8
D||--------------------|--------------------||
A||------------------5-|------------------5-||
E||-7-7----8----5--7---|---8----7----5--7---||
    i    i    i    i     i    i    i    i

G||--------------------|--------------------||  x11
D||--------------------|--------------------||
A||------------------9-|------------------5-||
E||-7----7---77-5--7---|-8----8---88-5--7---||
    i    i    i    i     i    i    i    i
G||--------------------|--------------------||
D||--------------------|--------------------||
A||------------------9-|--------------------||
E||-7----7---77-5--7---|-8------------------||
    i    i    i    i     i    i    i    i

Solo

G||--------------------|--------------------||  x8
D||--------------------|--------------------||
A||------------------9-|------------------5-||
E||-7----7---77-5--7---|-8----8---88-5--7---||
    i    i    i    i     i    i    i    i

Bridge

G||--------------------|--------------------|
D||--------------------|--------------------|
A||-----------5------5-|--------------------|
E||-0------0-----------|-2------2--10---9---|
    i    i    i    i     i    i    i    i
G||--------------------|--------------------||  x3
D||--------------------|--------------------||
A||------------------5-|------------------5-||
E||-7----7---77-5--7---|-7----7---77-5--7---||
    i    i    i    i     i    i    i    i
G||--------------------|--------------------|
D||--------------------|--------------------|
A||-----------5------5-|--------------------|
E||-0------0-----------|-2------2--10---9\--|
    i    i    i    i     i    i    i    i
G||--------------------||
D||--------------------||
A||-7\-----------------||
E||--------------------||
    i    i    i    i  

(wait)

Verse 2

G||------------------7-|------------------7-|
D||-9----9---99-7--9---|-9----9---99-7--9---|
A||--------------------|--------------------|
E||--------------------|--------------------|
    i    i    i    i     i    i    i    i
G||------------------7-|--------------------|
D||-9----9---99-7--9---|-9----9---99--------|
A||--------------------|-------------9--8-7-|
E||--------------------|--------------------|
    i    i    i    i     i    i    i    i

G||--------------------|--------------------||  x8
D||--------------------|--------------------||
A||------------------9-|------------------5-||
E||-7----7---77-5--7---|-8----8---88-5--7---||
    i    i    i    i     i    i    i    i
G||--------------------|--------------------||  x6
D||--------------------|--------------------||
A||------------------9-|------------------5-||
E||-7-7--7-7--7-5--7---|-8-8--8-8--8-5--7---||
    i    i    i    i     i    i    i    i
G||--------------------|--------------------||  x2
D||--------------------|--------------------||
A||--------------------|--------------------||
E||-7-7--7-7--7-7--7-7-|-8-8--8-8--8-8--8-8-||
    i    i    i    i     i    i    i    i
G||--------------------||
D||--------------------||
A||--------------------||
E||-7------------------||
    i    i    i    i  


Tab by Pedro Zappa
-----------------------------------------------------------------------------
-----------------------------------------------------------------------------


9. If You Were There, Beware


Intro

G||----------------------|----------------------||  x3
D||-----5----------5-----|-----5----------5-----||
A||-7-------6--7-------6-|-7-------6--7-------6-||
E||----------------------|----------------------||
    i     i    i    i      i     i    i    i  
G||----------------------------|----------------------------||
D||-12---10---10--10---10---10-|-14---14---14--16---16---16-||
A||----------------------------|----------------------------||
E||----------------------------|----------------------------||
    i       i     i       i      i       i     i       i

G||----------------------|----------------------|
D||-----5----------5-----|-----5----------5-----|
A||-7-------6--7-------6-|-7-------6--7-------6-|
E||----------------------|----------------------|
    i     i    i    i      i     i    i    i  
G||----------------------------|----------------------------||  x2
D||-12---10---10--10---10---10-|-14---14---14--16---16---16-||
A||----------------------------|----------------------------||
E||----------------------------|----------------------------||
    i       i     i       i      i       i     i       i

G||----------------------|| x2
D||-----5----------------||
A||-7-------6--7---------||
E||----------------------||
    i     i    i    i  
G||----------------------|----------------------|
D||----------------------|----------------------|
A||-5---3---3--3---3---3-|-7---7---7--9---9---9-|
E||----------------------|----------------------|
    i     i    i    i      i     i    i    i
G||----------------------|----------------------|
D||-----5----------5-----|-----5----------5-----|
A||-7-------6--7-------6-|-7-------6--7-------6-|
E||----------------------|----------------------|
    i     i    i    i      i     i    i    i  
G||----------------------------|----------------------------|
D||-12---10---10--10---10---10-|-14---14---14--16---16---16-|
A||----------------------------|----------------------------|
E||----------------------------|----------------------------|
    i       i     i       i      i       i     i       i

Verse 1

G||-----------------------|----------------------|
D||-----------------------|----------------------|
A||-7---7---7--7\-----(2)/|-7---7---7--7\--------|
E||-----------------------|----------------------|
    i     i    i    i       i     i    i    i
G||----------------------|----------------------||  x4
D||----------------------|----------------------||
A||-3---3---3--3---3---3-|-3---3---3--3---3---3-||
E||----------------------|----------------------||
    i     i    i    i      i     i    i    i

(wait)

G||--------------------|--------------------|
D||--------------------|--------------------|
A||--/7----7--7-7--7\--|--/7----7--7-7--7\--|
E||--------------------|--------------------|
    i    i    i    i     i    i    i    i
G||--------------------|--------------------||
D||--------------------|--------------------||
A||--/3----3--3-3--3---|--/3----3--3-3--3---||
E||--------------------|--------------------||
    i    i    i    i     i    i    i    i
G||--------------------|--------------------|
D||--------------------|--------------------|
A||--/7----7--7-7--7\--|--/7----7--7-7--7\--|
E||--------------------|--------------------|
    i    i    i    i     i    i    i    i
G||--------------------|-----------------------||
D||--------------------|-----------------------||
A||--/3----3--3-3--3---|--/3----3-/15-15--14---||
E||--------------------|-----------------------||
    i    i    i    i     i    i    i    i

G||--------------------|--------------------|
D||--------------------|--------------------|
A||--/7----7--7-7--7\--|--/7----7--7-7--7\--|
E||--------------------|--------------------|
    i    i    i    i     i    i    i    i
G||--------------------|--------------------||  x3
D||--------------------|--------------------||
A||--/3----3--3-3--3---|--/3----3--3-3--3---||
E||--------------------|--------------------||
    i    i    i    i     i    i    i    i
G||--------------------|--------------------|
D||--------------------|--------------------|
A||--/7----7--7-7--7\--|--/7----7--7-7--7\--|
E||--------------------|--------------------|
    i    i    i    i     i    i    i    i
G||--------------------|--------------------||
D||--------------------|--------------------||
A||--/3----3--3-3--3---|--/3----3--3-3--3-3-||
E||--------------------|--------------------||
    i    i    i    i     i    i    i    i

Chorus

G||--------------------|--------------------|
D||--------------------|--------------------|
A||-7------------------|--------------------|
E||--------------------|--------------------|
    i    i    i    i     i    i    i    i
G||--------------------|--------------------|
D||--------------------|--------------------|
A||-3------------------|-3------------------|
E||--------------------|--------------------|
    i    i    i    i     i    i    i    i
G||--------------------|--------------------|
D||--------------------|--------------------|
A||-7------------------|--------------------|
E||--------------------|--------------------|
    i    i    i    i     i    i    i    i
G||--------------------|-----------------------|
D||--------------------|-----------------------|
A||-3------------------|----------/15-15--14---|
E||--------------------|-----------------------|
    i    i    i    i     i    i    i      i

G||--------------------|--------------------|
D||--------------------|--------------------|
A||--/7----7--7-7--7\--|--/7----7--7-7--7\--|
E||--------------------|--------------------|
    i    i    i    i     i    i    i    i
G||--------------------|--------------------||  x2
D||--------------------|--------------------||
A||--/3----3--3-3--3---|--/3----3--3-3--3---||
E||--------------------|--------------------||
    i    i    i    i     i    i    i    i

Riff

G||--------------------|--------------------|
D||--------------------|--------------------|
A||--------------------|----3---3--3--2---2-|
E||----5---5--5--3---3-|-3------------------|
    i    i    i    i     i    i    i    i
G||--------------------|--------------------||  x2
D||--------------------|--------------------||
A||-2------------2---2-|-2------------2---2-||
E||----0---0--0--------|----0---0--0--------||
    i    i    i    i     i    i    i    i

G||--------------------|--------------------|
D||--------------------|--------------------|
A||--------------------|----3---3--3--2---2-|
E||----5---5--5--3---3-|-3------------------|
    i    i    i    i     i    i    i    i
G||--------------------|--------------------|
D||--------------------|--------------------|
A||-2--3---3--3--------|----2---2--2--5---5-|
E||--------------3---3-|-3------------------|
    i    i    i    i     i    i    i    i
G||--------------------|--------------------|
D||--------------------|--------------------|
A||-5--3---3--3--------|----2---2--2--------|
E||--------------3---3-|-3------------2---2-|
    i    i    i    i     i    i    i    i
G||--------------------|--------------------|
D||--------------------|--------------------|
A||----3---3--3--------|----2---2--2--2---2-|
E||-2------------3---3-|-3------------------|
    i    i    i    i     i    i    i    i
G||--------------------|--------------------|
D||--------------------|--------------------|
A||--------------------|--------------------|
E||-0------------------|--------------------|
    i    i    i    i     i    i    i    i

(wait)

G||----------------------|----------------------|
D||-----5----------5-----|-----5----------5-----|
A||-7-------6--7-------6-|-7-------6--7-------6-|
E||----------------------|----------------------|
    i     i    i    i      i     i    i    i  
G||----------------------------|----------------------------||  x2
D||-12---10---10--10---10---10-|-14---14---14--16---16---16-||
A||----------------------------|----------------------------||
E||----------------------------|----------------------------||
    i       i     i       i      i       i     i       i

G||----------------------|| x2
D||-----5----------------||
A||-7-------6--7---------||
E||----------------------||
    i     i    i    i  
G||----------------------|----------------------|
D||----------------------|----------------------|
A||-5---3---3--3---3---3-|-7---7---7--9---9---9-|
E||----------------------|----------------------|
    i     i    i    i      i     i    i    i
G||----------------------|----------------------|
D||-----5----------5-----|-----5----------5-----|
A||-7-------6--7-------6-|-7-------6--7-------6-|
E||----------------------|----------------------|
    i     i    i    i      i     i    i    i  
G||----------------------------|----------------------------|
D||-12---10---10--10---10---10-|-14---14---14--16---16---16-|
A||----------------------------|----------------------------|
E||----------------------------|----------------------------|
    i       i     i       i      i       i     i       i
G||--------------------|-----------------------|
D||-17-----------------|-----------17--16--15--|
A||--------------------|-----------------------|
E||--------------------|-----------------------|
    i    i    i    i     i    i    i     i
G||--------------------||
D||-14------------------||
A||--------------------||
E||--------------------||
    i    i    i    i 


Tab by Pedro Zappa
-----------------------------------------------------------------------------
-----------------------------------------------------------------------------


10. The Bad Thing


Intro

G||--------------------|--------------------|
D||--------------------|--------------------|
A||-7------7-------7-7-|-7------7-------7-7-|
D||--------------------|--------------------|
    i    i    i    i     i    i    i    i
G||--------------------|--------------------|
D||--------------------|--------------------|
A||-2------2-------2-2-|-2------2-------2-2-|
D||--------------------|--------------------|
    i    i    i    i     i    i    i    i
G||--------------------|--------------------|
D||--------------------|--------------------|
A||-0------0-------0-0-|-0------0-------0-0-|
D||--------------------|--------------------|
    i    i    i    i     i    i    i    i
G||--------------------|--------------------||  
D||--------------------|--------------------||
A||--------------------|-9------9-------9-9-||
D||-5------5-------5-5-|--------------------||
    i    i    i    i     i    i    i    i
G||--------------------|--------------------|
D||--------------------|--------------------|
A||-7------7-------7-7-|-7------7-------7-7-|
D||--------------------|--------------------|
    i    i    i    i     i    i    i    i
G||--------------------|--------------------|
D||--------------------|--------------------|
A||-2------2-------2-2-|-2------2-------2-2-|
D||--------------------|--------------------|
    i    i    i    i     i    i    i    i
G||--------------------|--------------------|
D||--------------------|--------------------|
A||-0------0-------0-0-|-0------0-------0-0-|
D||--------------------|--------------------|
    i    i    i    i     i    i    i    i
G||--------------------|--------------------||  
D||--------------------|--------------------||
A||--------------------|--------------------||
D||-5------5-------5-5-|-4------4-------4-4-||
    i    i    i    i     i    i    i    i

Verse 1

(wait)

G||--------------------|--------------------|
D||--------------------|------------7-------|
A||-5----5----55---5---|-0----0----0----0---|
D||--------------------|--------------------|
    i    i    i    i     i    i    i    i
G||--------------------|---------------------||
D||--------------------|-----------7-9--10-7-||
A||-5----5----55---5---|-0----0--------------||
E||--------------------|---------------------||
    i    i    i    i     i    i    i    i

G||--------------------|--------------------|  x3
D||--------------------|--------------------|
A||-5--5---55-5--5---55|-0--0---00-0--0---00|
D||--------------------|--------------------|
    i    i    i    i     i    i    i    i
G||--------------------|--------------------|
D||-5----5----5----5---|-5----5----5----5---|
A||--------------------|--------------------|
D||--------------------|--------------------|
    i    i    i    i     i    i    i    i
G||--------------------|--------------------|
D||-4----4----4----4---|-4------------------|
A||--------------------|--------------------|
D||--------------------|--------------------|
    i    i    i    i     i    i    i    i

Chorus 1

G||--------------------|----------------------|
D||--------------------|----------------------|
A||-7------7-------7-7-|-12-----10------10-10-|
D||--------------------|----------------------|
    i    i    i    i     i    i    i    i
G||--------------------|--------------------|
D||--------------------|--------------------|
A||-2------2-------2-2-|-5------3-------2-2-|
D||--------------------|--------------------|
    i    i    i    i     i    i    i    i
G||--------------------|--------------------|
D||--------------------|--------------------|
A||-0------0-------0-0-|-0------0-------0-0-|
D||--------------------|--------------------|
    i    i    i    i     i    i    i    i
G||--------------------|--------------------||  
D||--------------------|--------------------||
A||--------------------|-9------9-------9-9-||
D||-5------5-------5-5-|--------------------||
    i    i    i    i     i    i    i    i
G||--------------------|----------------------|
D||--------------------|----------------------|
A||-7------7-------7-7-|-12-----10------10-10-|
D||--------------------|----------------------|
    i    i    i    i     i    i    i    i
G||--------------------|--------------------|
D||--------------------|--------------------|
A||-2------2-------2-2-|-5------3-------2-2-|
D||--------------------|--------------------|
    i    i    i    i     i    i    i    i
G||--------------------|--------------------|
D||--------------------|--------------------|
A||-0------0-------0-0-|-0------0-------0-0-|
D||--------------------|--------------------|
    i    i    i    i     i    i    i    i
G||--------------------|--------------------||  
D||--------------------|--------------------||
A||--------------------|--------------------||
D||-5------5-------5-5-|-4------4-------4-4-||
    i    i    i    i     i    i    i    i

Verse  2

G||--------------------|--------------------|
D||--------------------|--------------------|
A||--------------------|-0----00---00---00--|
D||-0----00---0----00--|--------------------|
    i    i    i    i     i    i    i    i
G||--------------------|--------------------|
D||--------------------|--------------------|
A||--------------------|-0----00---0-2--3-0-|
D||-0----00---0----00--|--------------------|
    i    i    i    i     i    i    i    i
G||--------------------|--------------------|
D||--------------------|--------------------|
A||--------------------|-0----00---00---00--|
D||-0----00---0----00--|--------------------|
    i    i    i    i     i    i    i    i
G||--------------------|--------------------|
D||--------------------|--------------------|
A||--------------------|-0----00---0--------|
D||-0----00---0----00--|--------------------|
    i    i    i    i     i    i    i    i

G||--------------------|--------------------|
D||--------------------|--------------------|
A||-5----5----55---5---|-0----0----00---0---|
D||--------------------|--------------------|
    i    i    i    i     i    i    i    i
G||--------------------|---------------------||
D||--------------------|-----------7-9--10-7-||
A||-5----5----55---5---|-0----0--------------||
D||--------------------|---------------------||
    i    i    i    i     i    i    i    i

G||--------------------|--------------------|
D||--------------------|--------------------|
A||-5----5----5----5---|-5----5----5----5---|
D||--------------------|--------------------|
    i    i    i    i     i    i    i    i
G||--------------------|--------------------||  x3
D||--------------------|--------------------||
A||-0----0----0----0---|-0----0----0----0---||
E||--------------------|--------------------||
    i    i    i    i     i    i    i    i
G||--------------------|--------------------|
D||-5----5----5----5---|-5----5----5----5---|
A||--------------------|--------------------|
D||--------------------|--------------------|
    i    i    i    i     i    i    i    i
G||--------------------|--------------------|
D||-4----4----4----4---|-4------------------|
A||--------------------|--------------------|
D||--------------------|--------------------|
    i    i    i    i     i    i    i    i

Outro

G||--------------------|--------------------|
D||--------------------|--------------------|
A||--------------------|--------------------|
D||-2------2-------2-2-|-2------2-------2-2-|
    i    i    i    i     i    i    i    i
G||--------------------|--------------------|
D||--------------------|--------------------|
A||-2------2-------2-2-|-2------2-------2-2-|
D||--------------------|--------------------|
    i    i    i    i     i    i    i    i
G||--------------------|--------------------|
D||--------------------|--------------------|
A||-0------0-------0-0-|-0------0-------0-0-|
D||--------------------|--------------------|
    i    i    i    i     i    i    i    i
G||--------------------|--------------------||  
D||--------------------|--------------------||
A||--------------------|-9------9-------9-9-||
D||-5------5-------5-5-|--------------------||
    i    i    i    i     i    i    i    i
G||--------------------|--------------------|
D||--------------------|--------------------|
A||--------------------|--------------------|
D||-2------2-------2-2-|-2------2-------2-2-|
    i    i    i    i     i    i    i    i
G||--------------------|--------------------|
D||--------------------|--------------------|
A||-2----2----2----2---|-2----2----2----2---|
D||--------------------|--------------------|
    i    i    i    i     i    i    i    i
G||--------------------|--------------------|
D||--------------------|--------------------|
A||-0---------0--------|-0---------0--------|
D||--------------------|--------------------|
    i    i    i    i     i    i    i    i
G||--------------------|--------------------|
D||--------------------|--------------------|
A||--------------------|--------------------|
D||-5------------------|-4------------------|
    i    i    i    i     i    i    i    i
G||--------------------||
D||--------------------||
A||--------------------||
D||-2------------------||
    i    i    i    i  


Tab by Pedro Zappa
-----------------------------------------------------------------------------
-----------------------------------------------------------------------------


11. Old Yellow Bricks


Intro

G||--------------------|--------------------|
D||--------------------|--------------------|
A||--------------------|-7----7----7--7--7--|
E||-5----5----5--5--5--|--------------------|
    i    i    i    i     i    i    i    i
G||--------------------|--------------------||  x2
D||--------------------|--------------------||
A||-8----8----8--8--8--|-5----5----5--5--5--||
E||--------------------|--------------------||
    i    i    i    i     i    i    i    i

Verse 1 

G||--------------------|--------------------|
D||--------------------|--------------------|
A||--------------------|-7----7----7--7--7--|
E||-5----5----5--5--5--|--------------------|
    i    i    i    i     i    i    i    i
G||--------------------|--------------------||  x3
D||--------------------|--------------------||
A||-8----8----8--8--8--|-5----5----5--5--5--||
E||--------------------|--------------------||
    i    i    i    i     i    i    i    i
G||--------------------|--------------------|
D||--------------------|--------------------|
A||--------------------|-7----7----7--7--7--|
E||-5----5----5--5--5--|--------------------|
    i    i    i    i     i    i    i    i
G||--------------------|--------------------||
D||--------------------|--------------------||
A||-8----8----8--8--8--|-5----5------5----7-||
E||--------------------|--------------------||
    i    i    i    i     i    i    i    i

Chorus 1

G||--------------------|--------------------||  x2
D||--------------------|--------------------||
A||--------------------|--------------5---7-||
E||-1----------------0-|--------------------||
    i    i    i    i     i    i    i    i
G||--------------------|--------------------|| 
D||--------------------|--------------------||
A||--------------------|--------------------||
E||-1----------------0-|--------------------||
    i    i    i    i     i    i    i    i
G||--------------------|--------------------|
D||--------------------|--------------------|
A||-5\-----------------|--------------------|
E||--------------------|--------------------|
    i    i    i    i     i    i    i    i

Verse 2 

G||--------------------|--------------------|
D||--------------------|--------------------|
A||--------------------|-7----7----7--7--7--|
E||-5----5----5--5--5--|--------------------|
    i    i    i    i     i    i    i    i
G||--------------------|--------------------||  x3
D||--------------------|--------------------||
A||-8----8----8--8--8--|-5----5----5--5--5--||
E||--------------------|--------------------||
    i    i    i    i     i    i    i    i
G||--------------------|--------------------|
D||--------------------|--------------------|
A||--------------------|-7----7----7--7--7--|
E||-5----5----5--5--5--|--------------------|
    i    i    i    i     i    i    i    i
G||--------------------|--------------------||
D||--------------------|--------------------||
A||-8----8----8--8--8--|-5----5----5--7-----||
E||--------------------|-----------------0--||
    i    i    i    i     i    i    i    i

Chorus 2

G||--------------------|--------------------||  x2
D||--------------------|--------------------||
A||--------------------|--------------5---7-||
E||-1----------------0-|--------------------||
    i    i    i    i     i    i    i    i
G||--------------------|--------------------|| 
D||--------------------|--------------------||
A||--------------------|--------------------||
E||-1----------------0-|--------------------||
    i    i    i    i     i    i    i    i

G||---------------------|--------------------||  x3
D||-----------9--10-----|--------------------||
A||-7----------------5--|-7\--------2--3--5--||
E||---------------------|--------------------||
    i    i    i    i      i    i    i    i
G||---------------------|--------------------|
D||-----------9--10-----|--------------------|
A||-7----------------5--|-7\-----------------|
E||---------------------|-----------0--0--0--|
    i    i    i    i      i    i    i    i

Solo

G||--------------------|--------------------|
D||--------------------|--------------------|
A||--------------------|-7----7----7--7--7--|
E||-5----5----5--5--5--|--------------------|
    i    i    i    i     i    i    i    i
G||--------------------|--------------------||  x2
D||--------------------|--------------------||
A||-8----8----8--8--8--|-5----5----5--5--5--||
E||--------------------|--------------------||
    i    i    i    i     i    i    i    i

Chorus 3

G||--------------------|--------------------||  x6
D||--------------------|--------------------||
A||--------------------|--------------5---7-||
E||-1----------------0-|--------------------||
    i    i    i    i     i    i    i    i
G||--------------------|--------------------|| 
D||--------------------|--------------------||
A||--------------------|--------------------||
E||-1----------------0-|--------------------||
    i    i    i    i     i    i    i    i
G||--------------------|--------------------|
D||--------------------|--------------------|
A||-5\-----------------|--------------------|
E||--------------------|--------------------|
    i    i    i    i     i    i    i    i

Verse 3 

G||--------------------|--------------------|
D||--------------------|--------------------|
A||--------------------|-7----7----7--7--7--|
E||-5----5----5--5--5--|--------------------|
    i    i    i    i     i    i    i    i
G||--------------------|--------------------||  x2
D||--------------------|--------------------||
A||-8----8----8--8--8--|-5----5----5--5--5--||
E||--------------------|--------------------||
    i    i    i    i     i    i    i    i

G||--------------------|--------------------||  x2
D||--------------------|--------------------||
A||--------------------|--------------------||
E||-5----5----5--5--5--|-5----5----5--5--5--||
    i    i    i    i     i    i    i    i
G||--------------------|--------------------||  x2
D||--------------------|--------------------||
A||--------------7--7--|--------------------||
E||-5----5----5--------|-5----5----5--5--5--||
    i    i    i    i     i    i    i    i
G||--------------------|--------------------|
D||--------------------|--------------------|
A||--------------------|--------------------|
E||-5\-----------------|--------------------|
    i    i    i    i     i    i    i    i


Tab by Pedro Zappa
-----------------------------------------------------------------------------
-----------------------------------------------------------------------------


12. 505


(wait)

G||--------------------|--------------------|
D||--------------------|--------------------|
A||-5------------------|--------------------|
E||--------------------|--------------------|
    i    i    i    i     i    i    i    i
G||--------------------|--------------------||  x8
D||--------------------|--------------------||
A||--------------------|--------------------||
E||-0------------------|--------------------||
    i    i    i    i     i    i    i    i

G||--------------------|--------------------|
D||-----------7-7------|--------------------|
A||-5-5--8-8-------8-8-|-5------------------|
E||--------------------|--------------------|
    i    i    i    i     i    i    i    i
G||--------------------|--------------------||  x4
D||--------------------|-5------------------||
A||-7------------------|--------------------||
E||--------------------|--------------------||
    i    i    i    i     i    i    i    i

G||--------------------|--------------------|
D||--------------------|--------------------|
A||-5------------------|--------------------|
E||--------------------|--------------------|
    i    i    i    i     i    i    i    i
G||--------------------|--------------------||  x4
D||--------------------|--------------------||
A||--------------------|--------------------||
E||-0------------------|--------------------||
    i    i    i    i     i    i    i    i

G||--------------------|--------------------|
D||--------------------|-------------3------|
A||-5-5----3--5-5----3-|-5-5----3--5----5-3-|
E||--------------------|--------------------|
    i    i    i    i     i    i    i    i
G||--------------------|--------------------||  x9
D||--------------------|-------------5--7-7-||
A||-7-7----5--7-7----5-|-7-7----5--7--------||
E||--------------------|--------------------||
    i    i    i    i     i    i    i    i
G||--------------------|--------------------|
D||--------------------|-------------3------|
A||-5-5----3--5-5----3-|-5-5----3--5----5-3-|
E||--------------------|--------------------|
    i    i    i    i     i    i    i    i
G||--------------------|--------------------||
D||--------------------|-------------5----7-||
A||-7-7----5--7-7----5-|-7-7----5--7----7---||
E||--------------------|--------------------||
    i    i    i    i     i    i    i    i
G||--------------------|--------------------|
D||--------------------|-------------3------|
A||-5-5----3--5-5----3-|-5-5----3--5----5-3-|
E||--------------------|--------------------|
    i    i    i    i     i    i    i    i
G||--------------------|--------------------||  x2
D||--------------------|-------------5--7-7-||
A||-7-7----5--7-7----5-|-7-7----5--7--------||
E||--------------------|--------------------||
    i    i    i    i     i    i    i    i
G||--------------------||
D||--------------------||
A||-5------------------||
E||--------------------||
    i    i    i    i  


Tab by Pedro Zappa
-----------------------------------------------------------------------------
-----------------------------------------------------------------------------
comments
print report bad tab
I want to post or [tab]
guest
You may want to rate the tab now too:
select rating
Please do not post tabs as comments. Select "correction" instead!