Oops, an error
Loading. Please wait.

Humbug Bass Tab

4,063 views 33 this week
no commentswrite comment
1 2 3 4 5
excellent!
x 3
add to favorites launch autoscroll
font size
0
reset
Autoscroll
+/-
esc
set tempo
stop
Contributor
WARNING: You are trying to view
                                    content from Ultimate-Guitar.com
                                    in an unauthorized application,
                                    which is prohibited.

                                    Please use an official Ultimate
                                    Guitar Tabs application for iPhone,
                                    iPad or Android to access legitimate
                                    chords, guitar, bass, and drum tabs
                                    from Ultimate-Guitar.com database.

                                    Type "ultimate guitar tabs" in Apple
                                    App Store's or Android Market's
                                    search to find the application.
Artist: Arctic Monkeys

Album: Humbug



All tabs by Pedro Zappa
-----------------------------------------------------------------------------
-----------------------------------------------------------------------------


1. My Propeller


Intro

G||--------------------|--------------------|
D||--------------------|--------------------|
A||-7777-7777-7--------|--------------------|
E||----------------3---|-8-7--5-7--5--------|
    i    i    i    i     i    i    i    i
G||--------------------|--------------------||
D||--------------------|--------------------||
A||--------------------|--------------------||
E||-8-7--5-7--3-2--0-2-|-0------------------||
    i    i    i    i     i    i    i    i

(wait)

Verse 1

G||---------------------------|--------------------||
D||---------------------------|--------------------|| x2
A||---------------------------|----------------2---||
E||-12--12.12-12/-7--7-0--5-0-|-3-33-3-5--5-3----3-||
    i         i      i    i     i    i    i    i
---

G||---------------------------|--------------------|
D||---------------------------|--------------------|
A||--------------------7----7-|----------------2---|
E||-12--12.12-12/-7--7----5---|-3-33-3-5--5-3----3-|
    i         i      i    i     i    i    i    i
G||---------------------------|--------------------|
D||---------------------------|--------------------|
A||---------------------------|----------------5-7-|
E||-12--12.12-12/-7--7-0--5-0-|-3-33-3-5--5-3------|
    i         i      i    i     i    i    i    i
G||---------------------|--------------------|
D||---------------------|--------------------|
A||--------------7----7-|----------------2---|
E||-0-00-0--7--7----5---|-3-33-3-5--5-3----3-|
    i    i    i    i     i    i    i    i
G||---------------------------|--------------------|
D||---------------------------|--------------------|
A||--------------------7----7-|----------------2---|
E||-12--12.12-12/-7--7----5---|-3-33-3-5--5-3----3-|
    i         i      i    i     i    i    i    i
---

G||---------------------------|--------------------|
D||---------------------------|--------------------|
A||---------------------------|----------------2---|
E||-12--12.12-12/-7--7-0--5-0-|-3-33-3-5--5-3----3-|
    i         i      i    i     i    i    i    i
G||---------------------------|--------------------|
D||---------------------------|--------------------|
A||--------------------7----7-|----------------2---|
E||-12--12.12-12/-7--7----5---|-3-33-3-5--5-3----3-|
    i         i      i    i     i    i    i    i
G||---------------------------|--------------------|
D||---------------------------|--------------------|
A||---------------------------|----------------5-7-|
E||-12--12.12-12/-7--7-0--5-0-|-3-33-3-5--5-3------|
    i         i      i    i     i    i    i    i
G||---------------------|--------------------|
D||---------------------|--------------------|
A||--------------7----7-|----------------2---|
E||-0-00-0--7--7----5---|-3-3--3-5--5-3------|
    i    i    i    i     i    i    i    i

Chorus 1

G||--------------------|--------------------|
D||--------------------|--------------------|
A||-3------3----2--0---|--------------------|
E||------------------3-|-2------2----3--5---|
    i    i    i    i     i    i    i    i
G||--------------------|--------------------||
D||--------------------|--------------------||
A||--------------------|--------------------||
E||-7------------------|-1------------------||
    i    i    i    i     i    i    i    i

Verse 2

G||---------------------------|--------------------||
D||---------------------------|--------------------|| x2
A||---------------------------|----------------2---||
E||-12--12.12-12/-7--7-0--5-0-|-3-33-3-5--5-3----3-||
    i         i      i    i     i    i    i    i
G||---------------------------|--------------------|
D||---------------------------|--------------------|
A||--------------------7----7-|----------------2---|
E||-12--12.12-12/-7--7----5---|-3-33-3-5--5-3----3-|
    i         i      i    i     i    i    i    i
G||---------------------------|--------------------|
D||---------------------------|--------------------|
A||---------------------------|----------------5-7-|
E||-12--12.12-12/-7--7-0--5-0-|-3-33-3-5--5-3------|
    i         i      i    i     i    i    i    i
G||--------------------|--------------------||
D||--------------------|--------------------||
A||--------------------|--------------------||
E||-0------------------|--------------------||
    i    i    i    i     i    i    i    i
----

G||---------------------------|--------------------||
D||---------------------------|--------------------|| x2
A||---------------------------|----------------2---||
E||-12--12.12-12/-7--7-0--5-0-|-3-33-3-5--5-3----3-||
    i         i      i    i     i    i    i    i
G||---------------------------|--------------------|
D||---------------------------|--------------------|
A||--------------------7----7-|----------------2---|
E||-12--12.12-12/-7--7----5---|-3-33-3-5--5-3----3-|
    i         i      i    i     i    i    i    i
G||---------------------------|--------------------|
D||---------------------------|--------------------|
A||---------------------------|----------------5-7-|
E||-12--12.12-12/-7--7-0--5-0-|-3-33-3-5--5-3------|
    i         i      i    i     i    i    i    i
G||---------------------|--------------------|
D||---------------------|--------------------|
A||--------------7----7-|----------------2---|
E||-0-00-0--7--7----5---|-3-33-3-5--5-3----3-|
    i    i    i    i     i    i    i    i
G||---------------------------|--------------------|
D||---------------------------|--------------------|
A||---------------------------|----------------2---|
E||-12--12.12-12/-7--7-0--5-0-|-3-33-3-5--5-3----3-|
    i         i      i    i     i    i    i    i
G||---------------------------|--------------------|
D||---------------------------|--------------------|
A||--------------------7----7-|----------------2---|
E||-12--12.12-12/-7--7----5---|-3-33-3-5--5-3------|
    i         i      i    i     i    i    i    i

Chorus 2

G||--------------------|--------------------|
D||--------------------|--------------------|
A||-3------3----2--0---|----------------0---|
E||------------------3-|-2------2----3------|
    i    i    i    i     i    i    i    i
G||--------------------|--------------------|
D||--------------------|--------------------|
A||-2------2----0------|------------------2-|
E||----------------3-2-|-0------0----2--3---|
    i    i    i    i     i    i    i    i
G||--------------------|--------------------|
D||--------------------|--------------------|
A||-3------3----2--0---|--------------------|
E||------------------3-|-2------2----3--5---|
    i    i    i    i     i    i    i    i
G||--------------------|--------------------||
D||--------------------|--------------------||
A||--------------------|--------------------||
E||-7------------------|-1------------------||
    i    i    i    i     i    i    i    i

Outro

G||--------------------|--------------------|--------------------||
D||--------------------|--------------------|--------------------||  x6
A||-7777-7777-7--------|--------------------|--------------------||
E||----------------3---|-8-7--5-7--5--------|-8-7--5-7--3-2--0-2-||
    i    i    i    i     i    i    i    i     i    i    i    i
G||--------------------|--------------------|--------------------||
D||---5----------------|--------------------|--------------------||  x3
A||-7----7-5--7--------|--------------------|--------------------||
E||----------------3---|-8-7--5-7--5--------|-8-7--5-7--3-2--0-2-||
    i    i    i    i     i    i    i    i     i    i    i    i
G||--------------------|--------------------|
D||--------------------|--------------------|
A||--------------------|--------------------|
E||-0------------------|--------------------|
   i    i    i    i      i    i    i    i

Tab by Pedro Zappa
-----------------------------------------------------------------------------
-----------------------------------------------------------------------------


2. Crying Lightning


Intro

G||-----------------------|-----------------------|
D||-----------------------|---------------------6-|
A||-0-00-0-(0)/--8-8--8\--|-0-00-0-(0)/--7-7--8---|
E||-----------------------|-----------------------|
    i    i       i    i     i    i       i    i
G||---------------------------|---------------------||
D||---------------------------|---------------------||  x2
A||-0-00-0-(0)/--10-10----10\-|--------------0--2-3-||
E||---------------------------|-8-8----8\--4--------||
    i    i       i      i       i    i     i    i
Verse 1

G||-----------------------|-----------------------|
D||-----------------------|---------------------6-|
A||-0-00-0-(0)/--8-8--8\--|-0-00-0-(0)/--7-7--8---|
E||-----------------------|-----------------------|
    i    i       i    i     i    i       i    i
G||---------------------------|---------------------||
D||---------------------------|---------------------||  x4
A||-0-00-0-(0)/--10-10----10\-|--------------0--2-3-||
E||---------------------------|-8-8----8\--4--------||
    i    i       i      i       i    i     i    i

Pre-Chorus

(wait)

G||--------------------||    ||--------------------||    ||----------------||
D||--------------------|| x4 ||--------------------|| x3 ||----------------||
A||-------------7--6---||    ||---7----6---------6-||    ||---7----6-------||
E||-5----5----8------4-||    ||-8----4----5-8--7---||    ||-8----4----5----||
    i    i    i    i            i    i    i    i            i    i    i  i

Verse 2

G||------------------------|------------------------|
D||------------------------|----------------------6-|
A||-0-00--0-(0)/--8-8--8\--|-0-00--0-(0)/--7-7--8---|
E||------------------------|------------------------|
    i     i       i    i     i     i       i    i
G||----------------------------|---------------------||
D||----------------------------|---------------------||  x2
A||-0-00--0-(0)/--10-10----10\-|--------------0--2-3-||
E||----------------------------|-8-8----8\--4--------||
    i     i       i      i       i    i     i    i
G||------------------------|------------------------|
D||------------------------|----------------------6-|
A||-0-00--0-(0)/--8-8--8\--|-0-00--0-(0)/--7-7--8---|
E||------------------------|------------------------|
    i     i       i    i     i     i       i    i
G||--------------------------|---------------------|
D||--------------------------|---------------------| 
A||-0-00--0-(0)/--10-8--7----|--------------0--2-3-|
E||-----------------------10-|-8-8----8\--4--------|
    i     i       i     i      i    i     i    i
G||------------------------|------------------------|
D||------------------------|----------------------6-|
A||-0-00--0-(0)/--8-8--8\--|-0-00--0-(0)/--7-7--8---|
E||------------------------|------------------------|
    i     i       i    i     i     i       i    i
G||----------------------------|---------------------|
D||----------------------------|---------------------|
A||-0-00--0-(0)/--10-10----10\-|--------------0--2-3-|
E||----------------------------|-8-8----8\--4--------|
    i     i       i      i       i    i     i    i

Chorus

G||--------------------|--------------------|
D||--------------------|--------------------|
A||----------------0-3-|-5-5--5-5--8-7--5-7-|
E||-1-1--1-1--0-1------|--------------------|
    i    i    i    i     i    i    i    i
G||--------------------|---------------------|
D||--------------------|---------------------|
A||--------------------|-----------10-8--7---|
E||-5-5--5-5--5-5--5-5-|-5-5--5-5----------8-|
    i    i    i    i     i    i    i     i
G||--------------------|--------------------|
D||--------------------|--------------------|
A||----------------0-3-|-5-5--5-5--8-7--5-7-|
E||-1-1--1-1--0-1------|--------------------|
    i    i    i    i     i    i    i    i
G||--------------------|--------------------|
D||--------------------|--------------------|
A||-------------7--6---|--------------------|
E||-5-5--5-5--8------4-|-5-5--5-5--5-5--0-0-|
    i    i    i    i     i    i    i    i
G||--------------------|--------------------|
D||--------------------|--------------------|
A||----------------0-3-|-5-5--5-5--8-7--5-7-|
E||-1-1--1-1--0-1------|--------------------|
    i    i    i    i     i    i    i    iG||--------------------|---------------------|
D||--------------------|---------------------|
A||--------------------|-----------10-8--7---|
E||-5-5--5-5--5-5--5-5-|-5-5--5-5----------8-|
    i    i    i    i     i    i    i     i
G||--------------------|--------------------|
D||--------------------|--------------------|
A||----------------0-3-|-5-5--5-5--8-7--5-7-|
E||-1-1--1-1--0-1------|--------------------|
    i    i    i    i     i    i    i    i
G||--------------------|--------------------|
D||--------------------|--------------------|
A||--------------------|--------------------|
E||-5\-----------------|--------------------|
    i    i    i    i     i    i    i    i

Solo

(wait)

G||--------------------||    ||--------------------||    ||----------------||
D||--------------------|| x4 ||--------------------|| x3 ||----------------||
A||-------------7--6---||    ||---7----6---------6-||    ||---7----6-------||
E||-5-5--5-5--8------4-||    ||-8----4----5-8--7---||    ||-8----4----5----||
    i    i    i    i            i    i    i    i            i    i    i  i

Chorus 2

G||--------------------|--------------------|
D||--------------------|--------------------|
A||----------------0-3-|-5-5--5-5--8-7--5-7-|
E||-1-1--1-1--0-1------|--------------------|
    i    i    i    i     i    i    i    i
G||--------------------|---------------------|
D||--------------------|---------------------|
A||--------------------|-----------10-8--7---|
E||-5-5--5-5--5-5--5-5-|-5-5--5-5----------8-|
    i    i    i    i     i    i    i     i
G||--------------------|--------------------|
D||--------------------|--------------------|
A||----------------0-3-|-5-5--5-5--8-7--5-7-|
E||-1-1--1-1--0-1------|--------------------|
    i    i    i    i     i    i    i    i
G||--------------------|--------------------|
D||--------------------|--------------------|
A||-------------7--6---|--------------------|
E||-5-5--5-5--8------4-|-5-5--5-5--5-5--0-0-|
    i    i    i    i     i    i    i    i
G||--------------------|--------------------|
D||--------------------|--------------------|
A||----------------0-3-|-5-5--5-5--8-7--5-7-|
E||-1-1--1-1--0-1------|--------------------|
    i    i    i    i     i    i    i    i
G||--------------------|---------------------|
D||--------------------|---------------------|
A||--------------------|-----------10-8--7---|
E||-5-5--5-5--5-5--5-5-|-5-5--5-5----------8-|
    i    i    i    i     i    i    i     i
G||--------------------|--------------------|
D||--------------------|--------------------|
A||----------------0-3-|-5------------------|
E||-1-1--1-1--0-1------|--------------------|
    i    i    i    i     i    i    i    i


Tab by Pedro Zappa
-----------------------------------------------------------------------------
-----------------------------------------------------------------------------


3. Dangerous Animals


Intro

G||--------------------||    
D||--------------------|| x4 
A||------6----45-------||  
E||-3------6-------4---|| 
    i    i    i    i

Verse

G||--------------------||    ||--------------------||
D||--------------------|| x3 ||--------------------||
A||------6----45-------||    ||------6----45-------||
E||-3------6-------4---||    ||-3------6-----------||
    i    i    i    i            i    i    i    i
G||--------------------||    
D||--------------------|| x4 
A||------6----45-------||    
E||-3------6-------4---||    
    i    i    i    i
G||--------------------||    ||--------------------||
D||--------------------|| x3 ||--------------------||
A||------6----45-------||    ||------6----45---45--||
E||-3------6-------4---||    ||-3------6----4----4-||
    i    i    i    i            i    i    i    i
G||--------------------||    ||--------------------||
D||--------------------|| x3 ||--------------------||
A||------6----45-------||    ||------6----45---6---||
E||-3------6-------4---||    ||-3------6-----------||
    i    i    i    i            i    i    i    i

Chorus

G||--------------------|--------------------|
D||--------------------|--------------------|
A||-3---------6--------|----------------3---|
E||--------------------|-6------------------|
    i    i    i    i     i    i    i    i
G||--------------------|-------------------------||
D||--------------------|-------------------------|| x3
A||--------3---------1-|-----------/10-10--10-10-||
E||-6-3--6----4-1--4---|-3-3--1-3----------------||
    i    i    i    i     i    i     i      i
G||--------------------|--------------------||
D||--------------------|--------------------|| x3
A||--------3---------1-|-----------5--------||
E||-6-3--6----4-1--4---|-3-3--1-3-------4---||
    i    i    i    i     i    i    i    i

Verse 2

G||--------------------||    ||--------------------||
D||--------------------|| x3 ||--------------------||
A||------6----45-------||    ||------6----45-------||
E||-3------6-------4---||    ||-3------6-----------||
    i    i    i    i            i    i    i    i
G||--------------------||    ||-----------------------||
D||--------------------|| x3 ||-----------------------||
A||------6----45-------||    ||------6----4-5---4-5---||
E||-3------6-------4---||    ||-3------6------4-----4-||
    i    i    i    i            i    i    i     i
---

G||--------------------|--------------------|
D||-----------5----8\--|-----------5--------|
A||------45------------|------45--------6\--|
E||-3------------------|-3------------------|
    i    i    i    i     i    i    i    i
G||--------------------|--------------------|
D||-----------5----6\--|-----------5--------|
A||------45------------|------45--------44--|
E||-3------------------|-3------------------|
    i    i    i    i     i    i    i    i
G||--------------------|--------------------|
D||-----------5----8\--|-----------5--------|
A||------45------------|------45--------6\--|
E||-3------------------|-3------------------|
    i    i    i    i     i    i    i    i
G||--------------------|--------------------|
D||-----------5----6\--|--------------------|
A||------45------------|---6----4--5--------|
E||-3------------------|-3----6------4--3---|
    i    i    i    i     i    i    i    i
---

G||--------------------||    ||---------------------||
D||--------------------|| x3 ||---------------------||
A||------6----45-------||    ||------6-----45---45--||
E||-3------6-------4---||    ||-3------6-----4----4-||
    i    i    i    i            i    i    i    i
G||--------------------|--------------------|
D||-----------5----8\--|-----------5--------|
A||------45------------|------45--------6\--|
E||-3------------------|-3------------------|
    i    i    i    i     i    i    i    i
G||--------------------|--------------------||
D||--------------------|--------------------||
A||------6----45-------|------6----45---6---||
E||-3------6-------4---|-3------6-----------||
    i    i    i    i     i    i    i    i

Chorus 2

G||--------------------|--------------------|
D||--------------------|--------------------|
A||-3---------6--------|----------------3---|
E||--------------------|-6------------------|
    i    i    i    i     i    i    i    i
G||--------------------|-------------------------||
D||--------------------|-------------------------|| x7
A||--------3---------1-|-----------/10-10--10-10-||
E||-6-3--6----4-1--4---|-3-3--1-3----------------||
    i    i    i    i     i    i     i      i
G||--------------------|--------------------|
D||--------------------|--------------------|
A||--------3---------1-|-----------5--------|
E||-6-3--6----4-1--4---|-3-3--1-3-------4---|
    i    i    i    i     i    i    i    i
G||-------------------------|--------------------||
D||--------------12---------|--------------------||
A||-10-10--8-10--------11\--|-----------5--------||
E||-------------------------|-3-3--1-3-------4---||
    i      i     i     i      i    i    i    i   

Outro

G||--------------------|--------------------||
D||--------------------|--------------------||  x6
A||--------------------|--------------------||
E||-3-3---------3------|-3-3----------------||
    i    i    i    i     i    i    i    i

G||--------------------||    ||-----------------------||
D||--------------------|| x3 ||-----------------------||
A||------6----45-------||    ||------6----4-5---4-5---||
E||-3------6-------4---||    ||-3------6------4-----4-||
    i    i    i    i            i    i    i     i
G||--------------------||    ||--------------------||
D||--------------------|| x3 ||-------------6--5---||
A||------6----45-------||    ||---6----4--5--------||
E||-3------6-------4---||    ||-3----6-------------||
    i    i    i    i            i    i    i    i
G||--------------------||    ||--------------------||
D||--------------------|| x3 ||--------------------||
A||------6----45-------||    ||------6----45-------||
E||-3------6-------4---||    ||-3------6-----------||
    i    i    i    i            i    i    i    i
G||--------------------||    ||--------------------||
D||--------------------|| x6 ||--------------------||
A||------6----45-------||    ||------6----45-------||
E||-3------6-------4---||    ||-3------6-----------||
    i    i    i    i            i    i    i    i

Tab by Pedro Zappa
-----------------------------------------------------------------------------
-----------------------------------------------------------------------------


4. Secret Door


Verse

G||--------------------|--------------------||
D||--------------------|--------------------|| x3
A||------5----x555-----|------8---x550--5-6-||
E||-3--------------5---|-6------------------||
    i    i    i    i     i    i    i    i
G||--------------------|--------------------||
D||--------------------|--------------------||
A||------5----x555-----|------8----886--5---||
E||-3--------------5---|-6----------------6-||
    i    i    i    i     i    i    i    i

Verse

G||--------------------|--------------------||
D||--------------------|--------------------|| x3
A||------5----x555-----|------8---x550--5-6-||
E||-3--------------5---|-6------------------||
    i    i    i    i     i    i    i    i
G||--------------------|--------------------||
D||--------------------|--------------------||
A||------5----x555-----|------8----886--5---||
E||-3--------------5---|-6----------------6-||
    i    i    i    i     i    i    i    i
G||--------------------|--------------------||
D||--------------------|--------------------|| x3
A||------5----x555-----|------8---x550--5-6-||
E||-3--------------5---|-6------------------||
    i    i    i    i     i    i    i    i
G||--------------------|--------------------|
D||--------------------|--------------------|
A||------5----x555-----|------8---------1---|
E||-3--------------5---|-6---------3--------|
    i    i    i    i     i    i    i    i

Pre-Chorus

G||--------------------|-----------7--------|
D||-----------7--------|------7---------7\--|
A||-5----8---------5---|-8------------------|
E||--------------------|--------------------|
    i    i    i    i     i    i    i    i
G||--------------------|--------------------|
D||--------------------|--------------------|
A||-----------5--------|------5---------5---|
E||-3----6---------3---|-6---------3--------|
    i    i    i    i     i    i    i    i
G||--------------------|--------------------|
D||--------------------|--------------------|
A||-3---------3----1---|-0--------/8----6---|
E||------3-------------|------3-------------|
    i    i    i    i     i    i    i    i
G||--------------------|--------------------||
D||--------------------|--------------------||
A||------8----6--------|--------------------||
E||-6--------------8---|-5------------------||
    i    i    i    i     i    i    i    i

Verse 2

G||--------------------|--------------------||
D||--------------------|--------------------|| x3
A||------5----x555-----|------8---x550--5-6-||
E||-3--------------5---|-6------------------||
    i    i    i    i     i    i    i    i
G||--------------------|--------------------||
D||--------------------|--------------------||
A||------5----x555-----|------8----886--5---||
E||-3--------------5---|-6----------------6-||
    i    i    i    i     i    i    i    i
G||--------------------|--------------------|
D||--------------------|--------------------|
A||------5------5------|------8---x550--5-6-|
E||---3------------5---|-6------------------|
    i    i    i    i     i    i    i    i
G||--------------------|--------------------||
D||--------------------|--------------------|| x2
A||------5----x555-----|------8---x550--5-6-||
E||-3--------------5---|-6------------------||
    i    i    i    i     i    i    i    i
G||--------------------|--------------------|
D||--------------------|--------------------|
A||------5----x555-----|------8---------1---|
E||-3--------------5---|-6---------3--------|
    i    i    i    i     i    i    i    i

Pre-Chorus

G||--------------------|-----------7--------|
D||-----------7--------|------7---------7\--|
A||-5----8---------5---|-8------------------|
E||--------------------|--------------------|
    i    i    i    i     i    i    i    i
G||--------------------|--------------------|
D||--------------------|--------------------|
A||-----------5--------|------5---------5---|
E||-3----6---------3---|-6---------3--------|
    i    i    i    i     i    i    i    i
G||--------------------|--------------------|
D||--------------------|--------------------|
A||-3---------3----1---|-0--------/8----6---|
E||------3-------------|------3-------------|
    i    i    i    i     i    i    i    i
G||--------------------|--------------------|
D||--------------------|--------------------|
A||-----------5--------|------5-------------|
E||-3----6---------3---|-6---------3----6---|
    i    i    i    i     i    i    i    i
---

G||--------------------|-----------7--------|
D||-----------7--------|------7---------7\--|
A||-5----8---------5---|-8------------------|
E||--------------------|--------------------|
    i    i    i    i     i    i    i    i
G||--------------------|--------------------|
D||--------------------|--------------------|
A||-----------5--------|------5---------5---|
E||-3----6---------3---|-6---------3--------|
    i    i    i    i     i    i    i    i
G||--------------------|--------------------|
D||--------------------|--------------------|
A||-3---------3----1---|-0--------/8----6---|
E||------3-------------|------3-------------|
    i    i    i    i     i    i    i    i
G||--------------------|--------------------||
D||--------------------|--------------------||
A||-5----3----1----0---|------6----5----6---||
E||--------------------|-1------------------||
    i    i    i    i     i    i    i    i

Chorus

G||--------------------|--------------------|
D||--------------------|--------------------|
A||--------5--6------5-|-----------5------6-|
E||-6------------------|-3------6-----------|
    i    i    i    i     i    i    i    i
G||---------------------|-----------------------||
D||---------------------|-----------------------||  x3
A||-3---------5-------5-|-3------1--8-10--12-13-||
E||--------6----5\-1/---|-----------------------||
    i    i    i    i      i    i    i     i
G||--------------------|--------------------|
D||--------------------|--------------------|
A||--------5--6------5-|-----------5------6-|
E||-6------------------|-3------6-----------|
    i    i    i    i     i    i    i    i
G||---------------------|-------------------||
D||---------------------|-------------------||
A||-3---------5-------5-|-3------1--8-------||
E||--------6----5\-1/---|-------------------||
    i    i    i    i      i    i    i    i


Tab by Pedro Zappa
-----------------------------------------------------------------------------
-----------------------------------------------------------------------------


5. Potion Approaching


(wait)

Verse 1

G||--------------------|--------------------||  x2
D||--------------------|--------------------||
A||-9---------10-------|-9---------10-------||
E||--------0---------0-|--------0---------0-||
    i    i    i    i     i    i    i    i
G||------------------------|-----------------------|
D||------------------------|-----------------------|
A||------------------------|-10-9--8-9--10-9--8-10-|
E||-5----5-5-5--5----5-5-5-|-----------------------|
    i    i      i    i       i     i    i     i
G||--------------------|--------------------||  x2
D||--------------------|--------------------||
A||-9---------10-------|-9---------10-------||
E||--------0---------0-|--------0---------0-||
    i    i    i    i     i    i    i    i
G||------------------------|-----------------------|
D||------------------------|-----------------------|
A||------------------------|-10-9--8-9--10-9--8-10-|
E||-5----5-5-5--5----5-5-5-|-----------------------|
    i    i      i    i       i     i    i     i
G||--------------------|--------------------|
D||--------------------|--------------------|
A||-9---------10-------|-9---------10-------|
E||--------0---------0-|--------0---------0-|
    i    i    i    i     i    i    i    i
G||------------------------|----------------------|
D||------------------------|----------------------|
A||------------------------|-10-9--8-9--10-9--8-0-|
E||-5----5-5-5--5----5-5-5-|----------------------|
    i    i      i    i       i     i    i     i

Chorus 1

G||------------------------|------------------------||  x4
D||------------------------|------------------------||
A||------------------------|------------------------||
E||-2----2-2-2--2----2-2-2-|-2----2-2-2-5---0---5---||
    i    i      i    i       i    i     i    i

Verse 2

G||--------------------||
D||--------------------||
A||------------------7-||
E||--------------0-0---||
    i    i    i    i  
G||--------------------|--------------------||  x4
D||--------------------|--------------------||
A||-9---------10-------|-9---------10-------||
E||--------0---------0-|--------0---------0-||
    i    i    i    i     i    i    i    i
G||------------------------|-----------------------|
D||------------------------|-----------------------|
A||------------------------|-10-9--8-9--10-9--8-10-|
E||-5----5-5-5--5----5-5-5-|-----------------------|
    i    i      i    i       i     i    i     i
G||--------------------|--------------------||  x2
D||--------------------|--------------------||
A||-9---------10-------|-9---------10-------||
E||--------0---------0-|--------0---------0-||
    i    i    i    i     i    i    i    i
G||------------------------|-----------------------|
D||------------------------|-----------------------|
A||------------------------|-10-9--8-9--10-9--8-10-|
E||-5----5-5-5--5----5-5-5-|-----------------------|
    i    i      i    i       i     i    i     i
G||--------------------|--------------------|
D||--------------------|--------------------|
A||-9---------10-------|-9---------10-------|
E||--------0---------0-|--------0---------0-|
    i    i    i    i     i    i    i    i
G||------------------------|----------------------|
D||------------------------|----------------------|
A||------------------------|-10-9--8-9--10-9--8-0-|
E||-5----5-5-5--5----5-5-5-|----------------------|
    i    i      i    i       i     i    i     i

Chorus 2

G||------------------------|------------------------||  x4
D||------------------------|------------------------||
A||------------------------|------------------------||
E||-2----2-2-2--2----2-2-2-|-2----2-2-2-5---0---5---||
    i    i      i    i       i    i     i    i
G||------------------------|------------------------||  x8
D||------------------------|------------------------||
A||----------------7-------|------------------------||
E||-2----2-2-2-5-------5---|-2----2-2-2-5---0---5---||
    i    i     i    i        i    i     i    i  
G||--------------------||
D||--------------------||
A||--------------------||
E||-2------------------||
    i    i    i    i  

Outro

(wait) 8th note swing

G||--------------------||
D||--------------------||
A||-----------5-0--4---||
E||-------------------0||
    i    i    i    i  

G||--------------------|--------------------||  x2
D||--------------------|--------------------||
A||--------------------|--------------------||
E||-2----2-2--2----2---|-2----2-2--2-5--0-5-||
    i    i    i    i     i    i    i    i
G||--------------------|--------------------||
D||--------------------|----------------2-3-||
A||--------------------|-------------4------||
E||-2----2-2--2----2---|-2----2-2--2--------||
    i    i    i    i     i    i    i    i
G||--------------------|--------------------||  x2
D||--------------------|--------------------||
A||--------------------|--------------------||
E||-2----2-2--2----2---|-2----2-2--2-5--0-5-||
    i    i    i    i     i    i    i    i
G||--------------------|--------------------|
D||--------------------|--------------------|
A||--------------------|----------------7---|
E||-2----2-2--2----2---|-2----2-2--2-5----5-|
    i    i    i    i     i    i    i    i
G||--------------------|--------------------|
D||--------------------|--------------------|
A||------9-9--9----7-7-|-7----------------7-|
E||-2------------------|------8-8--8-5--5---|
    i    i    i    i     i    i    i    i
G||--------------------|--------------------|
D||--------------------|--------------------|
A||--------------------|----------------7---|
E||-2----2-2--2----2---|-2----2-2--2-5----5-|
    i    i    i    i     i    i    i    i

G||--------------------|--------------------|
D||--------------------|--------------------|
A||--------------------|--------------------|
E||-2----2----2----2---|-2----2-2--2-5--0-5-|
    i    i    i    i     i    i    i    i
G||--------------------|--------------------|
D||--------------------|--------------------|
A||--------------------|----------------7---|
E||-2----2-2--2----2---|-2----2-2--2-5----5-|
    i    i    i    i     i    i    i    i
G||--------------------|--------------------|
D||--------------------|--------------------|
A||------9-9--9----7-7-|-7--------------7---|
E||-2------------------|------8-8--8-5----5-|
    i    i    i    i     i    i    i    i
G||--------------------|--------------------|
D||--------------------|--------------------|
A||--------------------|--------------------|
E||-2------------------|--------------------|
    i    i    i    i     i   

Verse 2

G||--------------------||
D||--------------------||
A||--------------7-7-7-||
E||--------------------||
    i    i    i    i  
G||--------------------|--------------------||  x4
D||--------------------|--------------------||
A||-9---------10-------|-9---------10-------||
E||--------0---------0-|--------0---------0-||
    i    i    i    i     i    i    i    i
G||------------------------|----------------------|
D||------------------------|----------------------|
A||------------------------|-10-9--8-10--9--------|
E||-5----5-5-5--5----5-5-5-|----------------------|
    i    i      i    i       i     i     i    i


Tab by Pedro Zappa
-----------------------------------------------------------------------------
-----------------------------------------------------------------------------


6. Fire And The Thud


Intro

(wait)

Verse 1

G||--------------------||
D||--------------------||
A||--------------------||
E||------------------1-||
    i    i    i    i  
G||--------------------|--------------------|
D||--------------------|--------------------|
A||--------------------|--------------------|
E||-2-2----2----2----1-|-2-2----2----2----1-|
    i    i    i    i     i    i    i    i
G||--------------------|--------------------||  x4
D||--------------------|--------------------||
A||--------------------|--------------------||
E||-2-2----2----2----1-|-2-2----5----4----1-||
    i    i    i    i     i    i    i    i

Chorus 1

G||--------------------|--------------------|
D||--------------------|--------------------|
A||--------------------|--------------------|
E||-2-2----2----2----2-|-5-5----5----5----5-|
    i    i    i    i     i    i    i    i
G||--------------------|--------------------|
D||--------------------|--------------------|
A||-5-5----5----5----5-|---5----5--4-2--0---|
E||--------------------|------------------1-|
    i    i    i    i     i    i    i    i

Verse 2

G||--------------------|--------------------|
D||--------------------|--------------------|
A||--------------------|--------------------|
E||-2-2----2----2----1-|-2-2----2----2----1-|
    i    i    i    i     i    i    i    i
G||--------------------|--------------------||  x5
D||--------------------|--------------------||
A||--------------------|--------------------||
E||-2-2----2----2----1-|-2-2----5----4----1-||
    i    i    i    i     i    i    i    i

Chorus 2

G||--------------------|--------------------|
D||--------------------|--------------------|
A||--------------------|--------------------|
E||-2-2----2----2----2-|-5-5----5----5----5-|
    i    i    i    i     i    i    i    i
G||--------------------|--------------------||
D||--------------------|--------------------||
A||-5-5----5----5----5-|---5----5--4-2--0---||
E||--------------------|------------------1-||
    i    i    i    i     i    i    i    i

G||--------------------|--------------------||  x2
D||--------------------|--------------------||
A||--------------------|---5----5--4-2--0---||
E||-2-2----2----2--5-5-|------------------1/||
    i    i    i    i     i    i    i    i
G||--------------------|--------------------||  x4
D||--------------------|--------------------||
A||--------5-----------|--------------------||
E||/7-----------7----0-|-2------2----0----2/||
    i    i    i    i     i    i    i    i

G||--------------------|--------------------|
D||--------------------|--------------------|
A||-2------------------|--------------------|
E||--------------------|-2------------------|
    i    i    i    i     i    i    i    i
G||--------------------|--------------------|
D||--------------------|--------------------|
A||-2------------------|--------------------|
E||--------------------|-2------------------|
    i    i    i    i     i    i    i    i
G||--------------------|--------------------|
D||--------------------|--------------------|
A||-5------------------|--------------------|
E||--------------------|--------------------|
    i    i    i    i     i    i    i    i
G||--------------------|--------------------|
D||--------------------|--------------------|
A||-5------------------|--5-----------------|
E||--------------------|--------------------|
    i    i    i    i     i    i    i    i

G||--------------------||
D||--------------------||
A||--------------------||
E||------------------1-||
    i    i    i    i  
G||--------------------|--------------------|
D||--------------------|--------------------|
A||--------------------|--------------------|
E||-2------2----2----1-|-2------2----2----1-|
    i    i    i    i     i    i    i    i
G||--------------------|--------------------||
D||--------------------|--------------------||
A||--------------------|--------------------||
E||-2------2----2----1-|-2------2--5-5--4-1-||
    i    i    i    i     i    i    i    i

G||--------------------|--------------------||  x10
D||--------------------|--------------------||
A||--------------------|--------------------||
E||-2-2--2-2--5-5--4-4-|---2----2--2-2--2-1-||
    i    i    i    i     i    i    i    i

G||--------------------|--------------------|
D||--------------------|--------------------|
A||--------------------|--------------------|
E||-2-2----2----2----2-|-5-5----5----5----5-|
    i    i    i    i     i    i    i    i
G||--------------------|--------------------|-----|
D||--------------------|--------------------|-----|
A||-5-5----5----5----5-|---5----5--5-4--3---|-----|
E||--------------------|------------------0-|-2---|
    i    i    i    i     i    i    i    i


Tab by Pedro Zappa
-----------------------------------------------------------------------------
-----------------------------------------------------------------------------


7. Cornerstone


Intro

G||--------------------|--------------------|
D||--------------------|--------------------|
A||--------------------|--------------------|
E||-5------5--5--------|-5------5--5--------|
    i    i    i    i     i    i    i    i

Verse 1

G||--------------------|--------------------|
D||--------------------|--------------------|
A||------------------4-|-5---------2--------|
E||-5------5--5--------|--------2-------0---|
    i    i    i    i     i    i    i    i
G||--------------------|--------------------|
D||--------------------|--------------------|
A||------------------4-|-5---------2--------|
E||-5------5--5--------|------2---------0---|
    i    i    i    i     i    i    i    i
G||--------------------|--------------------|--------------------|
D||--------------------|--------------------|--------------------|
A||--------4-------7---|--------4-------9-7-|-5---------2--------|
E||-2----2----5--------|-2----2----5--------|------2---------0---|
    i    i    i    i     i    i    i    i     i    i    i    i
G||--------------------|--------------------|
D||-------------11-----|-------------11-----|
A||------4---/9--------|------4---/9--------|
E||-5------------------|-5------------------|
    i    i    i    i     i    i    i    i

G||--------------------|--------------------|
D||--------------------|--------------------|
A||------------------4-|-5---------2--------|
E||-5------5--5--------|--------2-------0---|
    i    i    i    i     i    i    i    i
G||--------------------|--------------------|
D||--------------------|--------------------|
A||------------------4-|-5---------2--------|
E||-5------5--5--------|------2---------0---|
    i    i    i    i     i    i    i    i
G||--------------------|--------------------|--------------------|
D||--------------------|--------------------|--------------------|
A||--------4-------7---|--------4-------9-7-|-5---------2--------|
E||-2----2----5--------|-2----2----5--------|------2---------0---|
    i    i    i    i     i    i    i    i     i    i    i    i
G||--------------------|--------------------|
D||-------------11-----|--------------------|
A||------4---/9--------|------4----9----7---|
E||-5------------------|-5------------------|
    i    i    i    i     i    i    i    i

Chorus 1

G||--------------------|---------------|
D||--------------------|---------------|
A||-5-5--5-5--5-5--7-7-|-2----0-2--2---|
E||--------------------|---2-----------|
    i    i    i    i     i    i    i    
G||--------------------|---------------|
D||--------------------|---------------|
A||--------------------|-5-5--5-5--5---|
E||-2-2--2-2--2-2--2-0-|---------------|
    i    i    i    i     i    i    i  
G||--------------------|---------------|
D||--------------------|---------------|
A||-2-2--2-2--2----0-2-|---------------|
E||-------------2------|-0-00-0-00-0---|
    i    i    i    i     i    i    i 
G||--------------------|--------------------|
D||--------------------|--------------------|
A||--------------------|-5----4-------------|
E||-5------5--5------5-|-----------0----7---|
    i    i    i    i     i    i    i    i

Verse 2

G||--------------------|--------------------|
D||--------------------|--------------------|
A||------------------4-|-5---------2--------|
E||-5------5--5--------|--------2-------0---|
    i    i    i    i     i    i    i    i
G||--------------------|--------------------|
D||--------------------|--------------------|
A||----------------9-7-|-5---------2--------|
E||-5------5--5--------|------2---------0---|
    i    i    i    i     i    i    i    i
G||--------------------|--------------------|--------------------|
D||--------------------|--------------------|--------------------|
A||--------4-------7---|--------4-------9-7-|-5---------2--------|
E||-2----2----5--------|-2----2----5--------|--------------------|
    i    i    i    i     i    i    i    i     i    i    i    i

Bridge

G||------6---------4---|--------------------|
D||-----------6--------|--------------------|
A||-4------------------|--------------------|
E||--------------------|-5----5----5----7---|
    i    i    i    i     i    i    i    i
G||------6---------4---|--------------------|
D||-----------6--------|--------------------|
A||-4------------------|--------------------|
E||--------------------|-5-5--5-5--7-7--2-2-|
    i    i    i    i     i    i    i    i
G||------6---------4---|--------------------|
D||-----------6--------|--------------------|
A||-4------------------|------------------0-|
E||--------------------|-2------2--2-0--2---|
    i    i    i    i     i    i    i    i
G||--------------------|--------------------|
D||--------------------|--------------------|
A||-2------2--2----0-2-|-7------9--7-9--11--|
E||-------------2------|--------------------|
    i    i    i    i     i    i    i    i

Chorus 2

G||--------------------|---------------|
D||--------------------|---------------|
A||-5-5--5-5--5-5--7-7-|-2----0-2--2---|
E||--------------------|---2-----------|
    i    i    i    i     i    i    i    
G||--------------------|---------------|
D||--------------------|---------------|
A||--------------------|-5-5--5-5--5---|
E||-2-2--2-2--2-2--2-0-|---------------|
    i    i    i    i     i    i    i  
G||--------------------|---------------|---------------|
D||--------------------|---------------|---------------|
A||-2-2--2-2--2----0-2-|-5-5--5-5--5-5-|-5-5--5-5--5-5-|
E||-------------2------|---------------|---------------|
    i    i    i    i     i    i    i     i    i    i 

Solo

G||--------------------|--------------------|
D||--------------------|--------------------|
A||------4--------/9-7-|-5---------2--------|
E||-5-----5--55--------|------2---------0---|
    i    i    i    i     i    i    i    i
G||--------------------|--------------------|
D||-------------11-11--|--------------------|
A||------4-9--9--------|-5---------2--------|
E||-5------------------|------2---------0---|
    i    i    i    i     i    i    i    i
G||--------------------|--------------------|
D||-----------7----6---|--------------------|
A||-------------9----7-|-------------0--2-4-|
E||-2----2-2-----------|-7------9--2--------|
    i    i    i    i     i    i    i    i
G||--------------------|--------------------|
D||-----------6-4------|--------------------|
A||-5----5-5-------7---|-7----7-7--7-2----2-|
E||------------------7-|----------------2---|
    i    i    i    i     i    i    i    i

Chorus 3

G||--------------------|--------------------|
D||-----------7----6---|--------------------|
A||-------------9----7-|-5---------2--------|
E||-5----5-5-----------|------2---------0---|
    i    i    i    i     i    i    i    i
G||--------------------|--------------------|
D||--------------------|--------------------|
A||------4--------/9-7-|-5---------2--------|
E||-5-----5--55--------|------2---------0---|
    i    i    i    i     i    i    i    i
G||--------------------|--------------------|--------------------||
D||--------------------|--------------------|--------------------||
A||--------4-------7---|--------4-------9-7-|-5------------------||
E||-2---22----5-5----5-|-2---22----5--------|--------------------||
    i    i    i    i     i    i    i    i     i    i    i    i


Tab by Pedro Zappa
-----------------------------------------------------------------------------
-----------------------------------------------------------------------------


8. Dance Little Liar


Intro

G||--------------------|--------------------||  x4
D||--------------------|--------------------||
A||-4-4--4-4-----------|-------------7--7-7-||
E||-----------4-4--4-4-|-2-2--2-2--2/-------||
    i    i    i    i     i    i    i    i

Verse 1

G||--------------------|--------------------||  x8
D||--------------------|--------------------||
A||-4-4--4-4-----------|-------------7--7-7-||
E||-----------4-4--4-4-|-2-2--2-2--2/-------||
    i    i    i    i     i    i    i    i

Chorus 1

G||--------------------|--------------------|
D||--------------------|--------------------|
A||--------------------|--------------------|
E||-5-5--5-5--5-5--5-5-|-5-5--5-5--2-2--2-2-|
    i    i    i    i     i    i    i    i
G||--------------------|--------------------|
D||--------------------|--------------------|
A||-4-4--4-4--4-4--4-4-|--------------------|
E||--------------------|-0-0--0-0--0-0--0-0-|
    i    i    i    i     i    i    i    i
G||--------------------|--------------------|
D||--------------------|--------------------|
A||--------------------|--------------------|
E||-2-2--2-2--2-2--2-2-|-0-0--0-0--0-0--0-0-|
    i    i    i    i     i    i    i    i
G||--------------------|--------------------|
D||--------------------|--------------------|
A||--------------------|--------------------|
E||-4-4--4-4--4-4--4-4-|-4------------------|
    i    i    i    i     i    i    i    i

Verse 2

G||--------------------|--------------------||  x4
D||--------------------|--------------------||
A||-4-4--4-4-----------|-------------7--7-7-||
E||-----------4-4--4-4-|-2-2--2-2--2/-------||
    i    i    i    i     i    i    i    i

G||---------------------------------|---------------------||  x4
D||-9p11-11--11-11--11p9------------|---------------------||
A||-----------------------11--11-11-|-7/99--9-9--9-7--7-7-||
E||---------------------------------|---------------------||
    i        i      i         i       i     i    i    i
G||--------------------|--------------------||  x4
D||--------------------|--------------------||
A||-4-4--4-4-----------|-------------7--7-7-||
E||-----------4-4--4-4-|-2-2--2-2--2/-------||
    i    i    i    i     i    i    i    i

Chorus 2

G||--------------------|--------------------|
D||--------------------|--------------------|
A||--------------------|--------------------|
E||-5-5--5-5--5-5--5-5-|-5-5--5-5--2-2--2-2-|
    i    i    i    i     i    i    i    i
G||--------------------|--------------------|
D||--------------------|--------------------|
A||-4-4--4-4--4-4--4-4-|--------------------|
E||--------------------|-0-0--0-0--0-0--0-0-|
    i    i    i    i     i    i    i    i
G||--------------------|--------------------|
D||--------------------|--------------------|
A||--------------------|--------------------|
E||-2-2--2-2--2-2--2-2-|-0-0--0-0--0-0--0-0-|
    i    i    i    i     i    i    i    i
G||--------------------|--------------------|
D||--------------------|--------------------|
A||--------------------|--------------------|
E||-4-4--4-4--4-4--4-4-|-4------------------|
    i    i    i    i     i    i    i    i

(wait)

Bridge

G||--------------------|--------------------|
D||--------------------|--------------------|
A||--------------------|-4--4---4--4--4---4-|
E||-2--2---2--2--2---2-|--------------------|
    i    i    i    i     i    i    i    i
G||--------------------|--------------------|
D||--------------------|--------------------|
A||--------------------|-4--4---4--7--7---7-|
E||-2--2---2--2--2---2-|--------------------|
    i    i    i    i     i    i    i    i
G||--------------------|--------------------|
D||--------------------|--------------------|
A||--------------------|--------------------|
E||-2--2---2--2--2---2-|-0--0---0--0--0---0-|
    i    i    i    i     i    i    i    i
G||--------------------|--------------------||
D||--------------------|----------------2---||
A||--------------------|-------------4------||
E||-0--0---0--0--0---0-|-4----4-----------4-||
    i    i    i    i     i    i    i    i 

Outro

(wait)

G||------------------------||  x8
D||------------------------||
A||-444444-7-4444447--4447-||
E||------------------------||
    i      i    i     i     

Chorus 3

G||--------------------|--------------------|
D||--------------------|--------------------|
A||--------------------|--------------------|
E||-5-5--5-5--5-5--5-5-|-5-5--5-5--2-2--2-2-|
    i    i    i    i     i    i    i    i
G||--------------------|--------------------|
D||--------------------|--------------------|
A||-4-4--7-4--4-7--4-7-|-4-4--7-4-----------|
E||--------------------|-----------0-0--0-0-|
    i    i    i    i     i    i    i    i
G||--------------------|--------------------|
D||--------------------|--------------------|
A||--------------------|--------------------|
E||-2-2--2-2--2-2--2-2-|-2-2--2-2--0-0--0-0-|
    i    i    i    i     i    i    i    i
G||--------------------|--------------------|
D||--------------------|--------------------|
A||-4-4--7-4--4-7--4-7-|-4-4--7-4--2-2--2-2-|
E||--------------------|--------------------|
    i    i    i    i     i    i    i    i

G||--------------------|--------------------|
D||--------------------|--------------------|
A||--------------------|--------------------|
E||-5-5--5-5--5-5--5-5-|-5-5--5-5--2-2--2-2-|
    i    i    i    i     i    i    i    i
G||--------------------|--------------------|
D||--------------------|--------------------|
A||-4-4--7-4--4-7--4-7-|-4-4--7-4-----------|
E||--------------------|-----------0-0--0-0-|
    i    i    i    i     i    i    i    i
G||--------------------|--------------------|
D||--------------------|--------------------|
A||--------------------|--------------------|
E||-2-2--2-2--2-2--2-2-|-2-2--2-2--0-0--0-0-|
    i    i    i    i     i    i    i    i
G||--------------------|--------------------|
D||--------------------|--------------------|
A||--------------------|--------------------|
E||-4-4--4-4--4-4--4-4-|-4------------------|
    i    i    i    i     i    i    i    i


Tab by Pedro Zappa
-----------------------------------------------------------------------------
-----------------------------------------------------------------------------


9. Pretty Visitors


Intro

(wait)

Verse 1

G||--------------------|--------------------||  x2
D||--------------------|--------------------||
A||-9-9--9----5-5--5---|-9------------------||
E||--------------------|--------------------||
    i    i    i    i     i    i    i    i
G||--------------------|--------------------||
D||--------------------|--------------------||
A||--------------------|--------------------||
E||-7-7--7-2----2--2---|-7-7--7-5----5--5---||
    i    i    i    i     i    i    i    i
G||--------------------|--------------------||  x3
D||--------------------|--------------------||
A||-9-9--9----5-5--5---|-9------------------||
E||--------------------|--------------------||
    i    i    i    i     i    i    i    i
G||--------------------|--------------------|
D||--------------------|--------------------|
A||--------------------|--------------------|
E||-7-7--7-2----2--2---|-7-7--7-5----5--5---|
    i    i    i    i     i    i    i    i
G||--------------------|--------------------||
D||--------------------|--------------------||
A||-9-9--9----5-5--5---|-9------------------||
E||--------------------|--------------------||
    i    i    i    i     i    i    i    i

Pre-Chorus 1

G||--------------------||  x4
D||--------------------||
A||--------------------||
E||-2/---9\---2/---10\-||
    i    i    i    i  

Chorus 1

G||----------------------|--------------------|
D||----------------------|----------------6---|
A||------------------0-4-|-5----5----5--------|
E||-2----2----2----2-----|--------------------|
    i    i    i    i       i    i    i    i
G||----------------------|--------------------||  x2
D||----------------------|--------------------||
A||------------------0-4-|-5----5----5--------||
E||-2----2----2----2-----|----------------4---||
    i    i    i    i       i    i    i    i

Verse 2

G||--------------------|--------------------||  x2
D||--------------------|--------------------||
A||-9-9--9----5-5--5---|-9------------------||
E||--------------------|--------------------||
    i    i    i    i     i    i    i    i
G||--------------------|--------------------||
D||--------------------|--------------------||
A||--------------------|--------------------||
E||-7-7--7-2----2--2---|-7-7--7-5----5--5---||
    i    i    i    i     i    i    i    i
G||--------------------|--------------------||  x3
D||--------------------|--------------------||
A||-9-9--9----5-5--5---|-9------------------||
E||--------------------|--------------------||
    i    i    i    i     i    i    i    i
G||--------------------|--------------------|
D||--------------------|--------------------|
A||--------------------|--------------------|
E||-7-7--7-2----2--2---|-7-7--7-5----5--5---|
    i    i    i    i     i    i    i    i
G||--------------------|--------------------||
D||--------------------|--------------------||
A||-9-9--9----5-5--5---|-9------------------||
E||--------------------|--------------------||
    i    i    i    i     i    i    i    i

Chorus 2

G||----------------------|--------------------|
D||----------------------|----------------6---|
A||------------------0-4-|-5----5----5--------|
E||-2----2----2----2-----|--------------------|
    i    i    i    i       i    i    i    i
G||----------------------|--------------------||  x2
D||----------------------|--------------------||
A||------------------0-4-|-5----5----5--------||
E||-2----2----2----2-----|----------------4---||
    i    i    i    i       i    i    i    i
G||--------------------||
D||--------------------||
A||--------------------||
E||-2------------------||
    i    i    i    i  

Bridge

(wait)

G||--------------------||
D||--------------------||
A||--------------------||
E||-----------14\------||
    i    i    i    i  
G||--------------------|--------------------||  x2
D||----------------4--3|------3---4---------||
A||------5----4---5----|-5---------4--------||
E||-2------------------|--------------------||
    i    i    i    i     i    i    i    i
G||--------------------|-------------------------||
D||----------------4--3|------3---4-----11-11-11-||
A||------5----4---5----|-5---------4-------------||
E||-2------------------|-------------------------||
    i    i    i    i     i    i    i    i
G||--------------------|--------------------||
D||----------------4--3|------3---4---------||
A||------5----4---5----|-5---------4--------||
E||-2------------------|--------------------||
    i    i    i    i     i    i    i    i

G||--------------------|--------------------|
D||-4434-3340-4444-4444|-4334-3340-4444-4444|
A||--------------------|--------------------|
E||--------------------|--------------------|
    i    i    i    i     i    i    i    i
G||--------------------|--------------------|
D||-4334-3340-4444-4444|-4334-3340----------|
A||--------------------|--------------------|
E||--------------------|--------------------|
    i    i    i    i     i    i    i    i

G||--------------------|--------------------|
D||-4434-3340--444-4444|-4334-3340--444-4444|
A||--------------------|--------------------|
E||--------------------|--------------------|
    i    i    i    i     i    i    i    i
G||--------------------|--------------------|----------|
D||-4334-3340--444-4444|-4334-334--0--------|----------|
A||--------------------|----------------5---|-5--------|
E||--------------------|--------------------|------4---|
    i    i    i    i     i    i    i    i     i    i

Chorus 3

G||----------------------|--------------------|
D||----------------------|----------------6---|
A||------------------0-4-|-5----5----5--------|
E||-2----2----2----2-----|--------------------|
    i    i    i    i       i    i    i    i
G||----------------------|--------------------||  x2
D||----------------------|--------------------||
A||------------------0-4-|-5----5----5--------||
E||-2----2----2----2-----|----------------4---||
    i    i    i    i       i    i    i    i
G||--------------------||
D||--------------------||
A||--------------------||
E||-2------------------||
    i    i    i    i  

Tab by Pedro Zappa
-----------------------------------------------------------------------------
-----------------------------------------------------------------------------


10. The Jeweller's Hands

Intro

G||--------------------||
D||--------------------||
A||-----------1----2---||
E||-4----1-------------||
    i    i    i    i  
G||--------------------|--------------------||  x3
D||------1---------1-5-|-3-3----------------||
A||-3-----3--33--------|------5-5--3-3--33-x||
E||--------------------|--------------------||
    i    i    i    i     i    i    i    i
G||--------------------|--------------------|| 
D||------1---------1-5-|--------------------||
A||-3-----3--33--------|------5-5--3-3--33-x||
E||--------------------|-1-1----------------||
    i    i    i    i     i    i    i    i

Verse 1

G||--------------------|--------------------||  x3
D||------1---------1-5-|-3-3----------------||
A||-3-----3--33--------|------5-5--3-3--33-x||
E||--------------------|--------------------||
    i    i    i    i     i    i    i    i
G||--------------------|--------------------|| 
D||------1---------1-5-|--------------------||
A||-3-----3--33--------|------5-5--3-3--33-x||
E||--------------------|-1-1----------------||
    i    i    i    i     i    i    i    i
G||--------------------|--------------------||  x3
D||------1---------1-5-|-3-3----------------||
A||-3-----3--33--------|------5-5--3-3--33-x||
E||--------------------|--------------------||
    i    i    i    i     i    i    i    i
G||--------------------|--------------------|| 
D||------1---------1-5-|--------------------||
A||-3-----3--33--------|------5-5--3-3--3-3-||
E||--------------------|-1-1----------------||
    i    i    i    i     i    i    i    i

Chorus 1

G||--------------------|--------------------|
D||--------------------|--------------------|
A||--------66---5----1-|-3------33---5----6-|
E||-4------------------|--------------------|
    i    i    i    i     i    i    i    i
G||--------------------|--------------------|
D||--------------------|--------------------|
A||--------------------|-3-5--6-5--3-1--3-6-|
E||-3------33---1----3-|--------------------|
    i    i    i    i     i    i    i    i
G||--------------------|--------------------|
D||--------------------|--------------------|
A||--------66---5----1-|--------------------|
E||-4------------------|-3------33---1----3-|
    i    i    i    i     i    i    i    i
G||--------------------|--------------------|
D||--------------------|--------------------|
A||--------------------|-3------33---5----6-|
E||-3------33---1----3-|--------------------|
    i    i    i    i     i    i    i    i
G||--------------------|--------------------|
D||-----------5--------|--------------------|
A||---6--5-6----6--5-6-|-3------33---5----6-|
E||-4------------------|--------------------|
    i    i    i    i     i    i    i    i
G||--------------------|--------------------|
D||--------------------|--------------------|
A||--------------------|-3-5--6-5--3-1--3-6-|
E||-3------33---1----3-|--------------------|
    i    i    i    i     i    i    i    i
G||--------------------|--------------------|
D||--------------------|--------------------|
A||--------66---5----1-|--------------------|
E||-4------------------|-3----3-------------|
    i    i    i    i     i    i    i    i

Verse 2

(wait)

G||--------------------||
D||-----------1-----1--||
A||-------------31-----||
E||----------------3---||
    i    i    i    i  
G||--------------------|--------------------||  x3
D||------1---------1-5-|-3-3----------------||
A||-3-----3--33--------|------5-5--3-3--33-x||
E||--------------------|--------------------||
    i    i    i    i     i    i    i    i
G||--------------------|--------------------|| 
D||------1---------1-5-|--------------------||
A||-3-----3--33--------|------5-5--3-3--33-x||
E||--------------------|-1-1----------------||
    i    i    i    i     i    i    i    i

Chorus 2

G||--------------------|--------------------|
D||--------------------|--------------------|
A||--------66---5----1-|-3------33---5----6-|
E||-4------------------|--------------------|
    i    i    i    i     i    i    i    i
G||--------------------|--------------------|
D||--------------------|--------------------|
A||--------------------|-3-5--6-5--3-1--3-6-|
E||-3------33---1----3-|--------------------|
    i    i    i    i     i    i    i    i
G||--------------------|--------------------|
D||--------------------|--------------------|
A||--------66---5----1-|--------------------|
E||-4------------------|-3------33---1----3-|
    i    i    i    i     i    i    i    i
G||--------------------|--------------------|
D||--------------------|--------------------|
A||--------------------|-3------33---5----6-|
E||-3------33---1----3-|--------------------|
    i    i    i    i     i    i    i    i
G||--------------------|--------------------|
D||-----------5--------|--------------------|
A||---6--5-6----6--5-6-|-3------33---5----6-|
E||-4------------------|--------------------|
    i    i    i    i     i    i    i    i
G||--------------------|--------------------|
D||--------------------|--------------------|
A||--------------------|-3-5--6-5--3-1--3-6-|
E||-3------33---1----3-|--------------------|
    i    i    i    i     i    i    i    i
G||--------------------|--------------------|--------------------|
D||--------------------|--------------------|--------------------|
A||--------66---5----1-|--------------------|--------------------|
E||-4------------------|-3----3----3----3---|-3----3-------------|
    i    i    i    i     i    i    i    i     i    i    i    i

(wait)

Outro

G||--------------------||
D||-----------1-----1--||
A||-------------31-----||
E||----------------3---||
    i    i    i    i  
G||--------------------|--------------------|
D||--------------565---|--------------------|
A||-3-3--3-3--6-6---653|--------------------|
E||--------------------|-4-4--4-4--7-7--7-7-|
    i    i    i    i     i    i    i    i
G||----------------------|--------------------||  x2
D||----------------------|--------------------||
A||-----------8-8--8-10.8|-3-3--3-3-----------||
E||-3-3--3-3-------------|-----------3-3--3-3-|| 
    i    i    i    i       i    i    i    i

G||--------------------|--------------------|
D||--------------565---|--------------------|
A||-3-3--3-3--6-6---653|--------------------|
E||--------------------|-4-4--4-4--3-3--3-3-|
    i    i    i    i     i    i    i    i
G||--------------------|--------------------||  x2
D||--------------------|--------------------||
A||-----------5-5--5-5-|-3-3--3-3-----------||
E||-4-4--4-4-----------|-----------3-3--3-3-|| 
    i    i    i    i     i    i    i    i

G||--------------------|--------------------|
D||--------------565---|--------------------|
A||-3-3--3-3--6-6---653|--------------------|
E||--------------------|-4-4--4-4--3-3--3-3-|
    i    i    i    i     i    i    i    i
G||--------------------|--------------------||
D||--------------------|--------------------||
A||--------------------|-3-3--3-3-----------||
E||-4-4--4-4--3-3--3-3-|-----------3-3--3-3-|| 
    i    i    i    i     i    i    i    i

G||--------------------|--------------------|
D||--------------565---|-6-6--6-6--9-9--9-9-|
A||-3-3--3-3--6-6---653|--------------------|
E||--------------------|--------------------|
    i    i    i    i     i    i    i    i
G||--------------------|--------------------||
D||-5-5--5-5--3-3--3-3-|--------------------||
A||--------------------|-3-3--3-3-----------||
E||--------------------|-----------3-3--3-3-|| 
    i    i    i    i     i    i    i    i

G||--------------------|--------------------|
D||--------------565---|--------------------|
A||-3-3--3-3--6-6---653|--------------------|
E||--------------------|-4-4--4-4--3-3--3-3-|
    i    i    i    i     i    i    i    i
G||--------------------|--------------------||
D||--------------------|--------------------||
A||-----------5-5--5-5-|-3-3--3-3-----------||
E||-4-4--4-4-----------|-----------3-3--3-3-|| 
    i    i    i    i     i    i    i    i

G||--------------------|--------------------|
D||--------------565---|--------------------|
A||-3-3--3-3--6-6---653|--------------------|
E||--------------------|-4-4--4-4--3-3--3-3-|
    i    i    i    i     i    i    i    i
G||--------------------|--------------------||  x2
D||--------------------|--------------------||
A||--------------------|-3-3--3-3-----------||
E||-4-4--4-4--3-3--3-3-|-----------3-3--3-3-|| 
    i    i    i    i     i    i    i    i

G||--------------------|--------------------|
D||--------------565---|--------------------|
A||-3-3--3-3--6-6---653|--------------------|
E||--------------------|-4-4--4-4--7-7--7-7-|
    i    i    i    i     i    i    i    i
G||----------------------|--------------------||
D||----------------------|--------------------||
A||-----------8-8--8-10.8|-3-3--3-3-----------||
E||-3-3--3-3-------------|-----------3-3--3-3-|| 
    i    i    i    i       i    i    i    i

G||--------------------|--------------------|
D||--------------565---|--------------------|
A||-3-3--3-3--6-6---653|--------------------|
E||--------------------|-4-4--4-4--3-3--3-3-|
    i    i    i    i     i    i    i    i
G||--------------------|--------------------||  x2
D||--------------------|--------------------||
A||-----------5-5--5-5-|-3-3--3-3-----------||    fade out
E||-4-4--4-4-----------|-----------3-3--3-3-|| 
    i    i    i    i     i    i    i    i


Tab by Pedro Zappa
-----------------------------------------------------------------------------
-----------------------------------------------------------------------------
comments
We did not receive enough feedback on this tab! Please rate:
print report bad tab
1 2 3 4 5
I want to post or [tab]
guest
You may want to rate the tab now too:
select rating
Please do not post tabs as comments. Select "correction" instead!