Oops, an error
Loading. Please wait.

Humbug Tab

11,705 views 52 this week
2 commentsread comments
1 2 3 4 5
accurate
x 3
Autoscroll
+/-
esc
set tempo
stop
Contributor
Hey! There's an official Ultimate Guitar app which is ideal
for learning songs when you're away from computer. Get the app
WARNING: You are trying to view
                                    content from Ultimate-Guitar.com
                                    in an unauthorized application,
                                    which is prohibited.

                                    Please use an official Ultimate
                                    Guitar Tabs application for iPhone,
                                    iPad or Android to access legitimate
                                    chords, guitar, bass, and drum tabs
                                    from Ultimate-Guitar.com database.

                                    Type "ultimate guitar tabs" in Apple
                                    App Store's or Android Market's
                                    search to find the application.
Arctic Monkeys
Humbug

Words by Alex Turner
music by Arctic Monkeys

This is compilation of tabs submitted by user, see credits.

SONG ORDER 

1. My Propeller  
2. Crying Lightning  
3. Dangerous Animals  
4. Secret Door
5. Potion Approaching
6. Fire and the Thud
7. Cornerstone 
8. Dance Little Liar  
9. Pretty Visitors
10. The Jeweller's Hands  


TAB:

- 1. My Propeller

INTRO:

e|------------------------3--------|
B|------------------------3--------|
G|------------------------0--------|
D|9-9-9-9-9-9-9-9-9-------0--------|
A|7-7-7-7-7-7-7-7-7-------x--------|
E|0-0-0-0-0-0-0-0-0-------3--------|


e|0-------0-------0-------0-------0-------0-----------------------|
B|1-------1-------1-------1-------1-------1-----------------------|
G|0-------0-------2-------2-------0-------0-----------------------|
D|2-------2-------2-------2-------2-------2-----------------------|
A|3-------3-------0-------0-------3-------3-----------------------|
E|-----------------------------------------------/7---5---3---2---|

e|----------------------------------------------------------------|
B|----------------------------------------------------------------|
G|----------------------------------------------------------------|
D|----------------------------------------------------------------|   x2
A|------------2-----------0-------------------0-----------2-------|
E|0-------0-----------0-------0---3-------3-----------3------[3]--|

VERSE:

Repeat this single note riff throughout the whole verse
the last note, in this [] bracket is left out every second bar

CHORUS:

guitar 1 plays with absolutely no vibrato at all while guitar 2 does

gtr. 1:
e|----------------------------------------------------------------|
B|----------------------------------------------------------------|
G|----------------------------------------------------------------|
D|----------------------------------------------------------------|
A|3-----------3-------2---0-------------------------------0-------|
E|----------------------------3---2-----------2-------3-----------|

gtr. 2:
e|----------------------------------------------------------------|
B|----------------------------------------------------------------|
G|5~~~------------------------------------------------------------|
D|--------------------------------4~~~----------------------------|
A|----------------------------------------------------------------|
E|----------------------------------------------------------------|

gtr. 1:
e|----------------------------------------------------------------|
B|----------------------------------------------------------------|
G|----------------------------------------------------------------|
D|----------------------------------------------------------------|
A|2---------------------------------------------------------------|
E|--------------------------------1-------------------------------|

gtr. 2:
e|----------------------------------------------------------------|
B|----------------------------------------------------------------|
G|4~~~------------------------------------------------------------|
D|--------------------------------3~~~----------------------------|
A|----------------------------------------------------------------|
E|----------------------------------------------------------------|

POST-CHORUS:

gtr. 1 continues with main verse riff; gtr. 2 plays these fills:

e|----------------------------0-----------------------------------|
B|----------------------------0-------------------------------3-/-|
G|----------------------------0h-/4---------------------------4-/-|
D|------------------------------------------------------------4-/-|
A|----------------------------------------------------------------|
E|----------------------------------------------------------------|

e|----------------------------------------------------------------|
B|/8--------------------------------------------------------------|
G|/9--------------------------------------------------------------|
D|/9--------------------------------------------------------------|
A|----------------------------------------------------------------|
E|----------------------------------------------------------------|

e|7---------------------------------------------------7-----------|
B|7-------------------------------------------8-------7-----------|
G|7-------------------------------------------7-------7-----------|
D|----------------------------------------------------------------|
A|----------------------------------------------------------------|
E|----------------------------------------------------------------|

e|0---------------------------------------------------------------|
B|0---------------------------------------------------------------|
G|4---------------------------------------------------------------|
D|----------------------------------------------------------------|
A|----------------------------------------------------------------|
E|----------------------------------------------------------------|

VERSE 2:

At start of 2nd Verse BOTH GUITARS let the empty E-string ring

gtr. 2:
e|----------------------------------------------------------------|
B|----------------------------------------------------------------|
G|----------------------------------------------------------------|
D|----------------------------------------------------------------|   
A|------------2-----------0-------------------0-----------2-------|
E|0-------0-----------0-------0---3-------3-----------3------[3]--|

CHORUS 2:

guitar 1 plays with absolutely no vibrato at all while guitar 2 does

gtr. 1:
e|----------------------------------------------------------------|
B|----------------------------------------------------------------|
G|----------------------------------------------------------------|
D|----------------------------------------------------------------|
A|3-----------3-------2---0-------------------------------0-------|
E|----------------------------3---2-----------2-------3-----------|

gtr. 2:
e|----------------------------------------------------------------|
B|----------------------------------------------------------------|
G|----------------------------------------------------------------|
D|----------------------------------------------------------------|
A|3~~~------------------------------------------------------------|
E|--------------------------------2~~~----------------------------|

gtr. 1:
e|----------------------------------------------------------------|
B|----------------------------------------------------------------|
G|----------------------------------------------------------------|
D|----------------------------------------------------------------|
A|2-----------2-------0---------------------------------------0---|
E|------------------------3---2---0-----------0-------2---3-------|

gtr. 2:
e|----------------------------------------------------------------|
B|----------------------------------------------------------------|
G|----------------------------------------------------------------|
D|----------------------------------------------------------------|
A|2~~~------------------------------------------------------------|
E|--------------------------------0~~~----------------------------|

both guitars repeat the first bar of chorus2 and then play:

gtr. 1:
e|----------------------------------------------------------------|
B|----------------------------------------------------------------|
G|----------------------------------------------------------------|
D|----------------------------------------------------------------|
A|2---------------------------------------------------------------|
E|--------------------------------1-------------------------------|

gtr. 2:
e|----------------------------------------------------------------|
B|----------------------------------------------------------------|
G|----------------------------------------------------------------|
D|----------------------------------------------------------------|
A|2~~~------------------------------------------------------------|
E|--------------------------------1~~~----------------------------|

OUTRO:

gtr. 1: repeated until end of song

e|------------------------3-------|
B|------------------------3-------|
G|------------------------0-------|
D|9-9-9-9-9-9-9-9-9-------0-------|
A|7-7-7-7-7-7-7-7-7-------x-------|
E|0-0-0-0-0-0-0-0-0-------3-------|

e|0-------0-------0-------0-------0-------0-----------------------|
B|1-------1-------1-------1-------1-------1--------0-------0------|
G|0-------0-------2-------2-------0-------0--------0-------0------|
D|2-------2-------2-------2-------2-------2--------0-------0------|
A|3-------3-------0-------0-------3-------3--------2-------2------|
E|-------------------------------------------------3-------3------|

gtr. 2 comes in after this has been played^^

overdriven Queens of the Stone Age-lead guitar sound

gtr. 2:                                           1/4;whole
e|----------------7------------7b(8)r7--------7-------------------|
B|------------8---------------------------10-------9b-B11r9-8-----|
G|9---------------------------------------------------------------|
D|----------------------------------------------------------------|
A|----------------------------------------------------------------|
E|----------------------------------------------------------------|

e|7b(8)r7------7--------------------------------------------------|
B|---------10--------7-b--(8)--r--7---8---------------------------|
G|----------------------------------------9-----------------------|
D|----------------------------------------------------------------|
A|----------------------------------------------------------------|
E|----------------------------------------------------------------|

then:

first bunch of lyrics

when they are repeated gtr. 2 comes in again:

do a little quarter bend at every note or vibrato or something like that

      won't spin      if i can't get  it  started  on  my
e|----7--------------------7-------------------------------------|
B|----------10-------------------10-8----------------------------|
G|------------------------------------9---9~~~~~-----------------|
D|---------------------------------------------------------------|
A|---------------------------------------------------------------|
E|---------------------------------------------------------------|

  own     when are you ar  - ri     -     ving
e|---------------------7-----10-----7----------------------------|
B|------8------10-------------------------10---\----8------------|
G|9--------------------------------------------------------------|
D|---------------------------------------------------------------|
A|---------------------------------------------------------------|
E|---------------------------------------------------------------|

  my        propeller            won't     spin           if
e|----------7----------------------------------------------------|
B|---8--10-----10--8---------------------------------------------|
G|9-------------------9------------------------------------------|
D|---------------------------------------------------------------|
A|---------------------------------------------------------------|
E|---------------------------------------------------------------|

  I     can't  get    it    star - ted    on     my
e|--------------------7------10-----7----------------------------|
B|------8------10-------------------------10------8--------------|
G|9--------------------------------------------------------------|
D|---------------------------------------------------------------|
A|---------------------------------------------------------------|
E|---------------------------------------------------------------|

  own           when  are  you  ar - ri   -   ving
e|--------------7------------------------------------------------|
B|--------------------10---8-------------------------------------|
G|9-----------------------------9----9---------------------------|
D|---------------------------------------------------------------|
A|---------------------------------------------------------------|
E|---------------------------------------------------------------|

and the final "my propeller" lines:

e|------------------------7-------10------7---------------7------|
B|--------8------10-------------------------------10-------------|
G|9--------------------------------------------------------------|
D|---------------------------------------------------------------|
A|---------------------------------------------------------------|
E|---------------------------------------------------------------|

e|---------------------------------------------------------------|
B|10------8---10------8------------------------------------------|
G|--------------------------------9------------------------------|
D|---------------------------------------------------------------|
A|---------------------------------------------------------------|
E|---------------------------------------------------------------|


- 2. Crying Lightning

INTRO/VERSE
Bass arr. for guitar

G|-----------------------------------------------------------------|
D|---------------------------------6-------------------------------|
A|----------/8-8-8-\---------7-7-7----------/10-10-10-3-3-3---0-2-3|
E|5-555-555----------5-555-5--------5-555-5-----------------4------|

Jamie's Guitar Part:
e|----5----------7-----5-----8-------12-|
B|--5---LET RING-----5-----8------12----|
G|5----------------5-----9-----13-------|
D|--------------------------------------|
A|--------------------------------------|
E|--------------------------------------|

Alex's Guitar Part (Intro and 2nd Verse)
e|------|-----------------|------------------|---------------------------|
B|------|-----------------|------------------|---------------------------|
G|------|-----------------|------------------|---------------------------|
D|------|-------0/3-------|-------/3-2-------|-------0-2/5-3-2-0---0-2-3-|
A|----3-|-0-2-3---------3-|-0-2-3----------3-|-0-2-3-------------3-------|
E|1-4---|-----------1-4---|------------1-4---|---------------------------|

D|---------||
A|--0-2-3--||
E|4--------||

Jamie's Guitar Part (1st verse):
e|----5----------7-----5-----8----------|
B|--5---LET RING-----5-----8---8-9v-----|
G|5----------------5-----9--------------|
D|--------------------------------------|
A|--------------------------------------|
E|--------------------------------------|

e|----5----------7-----5-----8---/12----|
B|--5---LET RING-----5-----8---8--------|
G|5----------------5-----9--------------|
D|--------------------------------------|
A|--------------------------------------|
E|--------------------------------------|

Bridge:
e|------------------|----------------------|----------------||
B|------------------|----------------------|----------------||
G|------------------|----------------------|----------------||
D|------------------|----------------------|----------------||
A|--------7-6----x8-|---7---6-------6------|---7---6--------||
E|5-5-5-8-----4-----|-8---4---5-8-7-----x3-|-8---4---5-0-1-4||

Jamie's Guitar For Verse 2:
e|5/13--5/12--5/10--8\4-|
B|----------------------|

e|5/13--17\12--5/10--8\4-|
B|-----------------------|

Alex plays intro riff as shown above.

CHORUS:
Alex plays the chords F Dm and Am

Jamie plays:

e|-------------|----------------5|
B|-------------|----------------5|
G|---9-7-------|------9-7-------5|
D|10-----7-10--|---10-----10-7---|
A|-------------|-----------------|
E|-------------|-----------------|

Bridge:

e|----------------|
B|----------------|
G|----------------|
D|----------------|
A|----------7-6---|
E|5-5-5-5-8-----4-| x4

Solo

e|----------|------------|----------|-------|---------------------------
B|----------|------------|----------|-------|---------------10-8-10-8---
G|5-7-7-5-7-|-5-7-5-7-5--|-5-7-5-/9-|5-7-5--|-5-7-5-9-5-7-5-----------9-
D|----------|-----------7|----------|------7|---------------------------
A|----------|------------|----------|-------|---------------------------
E|----------|------------|----------|-------|---------------------------

e|-------------------||
B|8h10p8---5h7p5h7---||
G|-------9---------7-||
D|-------------------||
A|-------------------||
E|-------------------||


D|---------------------|
A|---7---6-------6-----|
E|-8---4---5-8-7-----x3| 5^^

Let ring. Drums play (First half of vocals in chorus. No guitar)

In with chorus F Dm Am


- 3. Dangerous Animals

INTRO:

gtr. 1:

e|-------------------------------|
B|-------------------------------|
G|-------------------------------|   
D|-------------------------------|
A|-------6-------4-5-------------|
E|3----------6-----------4-------|

gtr. 2:

e|18~~~--------------------------|
B|-------------------------------|
G|-------------------------------|
D|-------------------------------|
A|-------------------------------|
E|-------------------------------|

VERSE:

gtr. 1 repeats Intro Riff
gtr. 2 only plays occasionally

at 0:33:
e|-------------------------------|
B|-------------------------------|
G|-------------------------------|   
D|-------------------------------|
A|-------6-------4-5----4-5------|
E|3----------6-------4-------4---|

last bar in verse:

gtr. 1:

e|-------------------------------|
B|-------------------------------|
G|-------------------------------|   
D|-------------------------------|
A|-------6-------4-5-----6-------|
E|3----------6-------------------|

gtr. 2:

e|-------------------------------|
B|-------------------------------|
G|-----------------------8-------|   
D|-------------------------------|
A|-------------------------------|
E|-------------------------------|

PRE-CHORUS:

gtr. 1:
e|----------------------------------------------------------------|
B|----------------------------------------------------------------|
G|----------------------------------------------------------------|
D|---------------1------------------------------------------------|
A|3-------------------------------1-----------------------3-------|
E|----------------------------------------------------------------|

gtr. 2:
e|----------------------------------------------------------------|
B|----------------------------------------------------------------|
G|5------------------------------/15~~~~~~------------------------|
D|----------------------------------------------------------------|
A|----------------------------------------------------------------|
E|----------------------------------------------------------------|

CHORUS:

gtr. 1:

          A_____  N - I - M - A - L               makes   my 
e|----------------------------------------------------------------|
B|----------------------------------------------------------------|
G|----------------------------------------------------------------|
D|----------------------------------------------------------------|
A|1-------1---3---1-------1---3-----------------------------------|
E|----3---------------1-----------3---3---1---3---3---3---3---3---|

  head    pi-rou-ette                             more    than
e|----------------------------------------------------------------|
B|----------------------------------------------------------------|
G|----------------------------------------------------------------|
D|----------------------------------------------------------------|
A|1-------1---3---1-------1---3-----------------------------------|
E|----3---------------1-----------3---3---1---3---3---3---3---3---|

      I would be wil-ling to con-fess             D   -   A   -
e|----------------------------------------------------------------|
B|----------------------------------------------------------------|
G|----------------------------------------------------------------|
D|----------------------------------------------------------------|
A|1-------1---3---1-------1---3-----------------------------------|
E|----3---------------1-----------3---3---1---3---3---3---3---3---|

  N   -   G - E - R   -   O - U - S
e|----------------------------------------------------------------|
B|----------------------------------------------------------------|
G|----------------------------------------------------------------|
D|----------------------------------------------------------------|
A|1-------1---3---1-------1---3-------------------5-------3-------|
E|----3---------------1-----------3---3---1---3-------------------|

gtr. 2: plays those hammer-ons throughout the whole chorus

e|----------------------------------------------------------------|
B|----------------------------------------------------------------|
G|--------3-h-5-----------3-h-5-----------------------------------|
D|----------------------------------------3-h-5-------------------|
A|----------------------------------------------------------------|
E|----------------------------------------------------------------|

AFTER CHORUS 1: only guitar 2 + bass + drums

starting at C note of last guitar one Chorus bar
e|--------|-------------------------------------------------------|
B|--------|-------------------------------------------------------|
G|--------|-------------------------------------------------------|
D|--------|5----------------------------------------------3-------|
A|3-------|---------------------------------------6---------------|
E|--------|-------------------------------------------------------|

e|----------------------------------------------------------------|
B|----------------------------------------------------------------|
G|----------------------------------------------------------------|
D|----------------------------------------------------------------|
A|5---------------------------------------------------------------|
E|----------------------------------------------------------------|

e|----------------------------------------------------------------|
B|----------------------------------------------------------------|
G|----------------------------------------------------------------|
D|5-----------------------------------------------3---------------|
A|------------------------------------------------------------6---|
E|----------------------------------------------------------------|

e|----------------------------------------------------------------|
B|----------------------------------------------------------------|
G|----------------------------------------------------------------|
D|----------------------------------------------------------------|
A|5-----------------------------------------------4--5--3--4h5----|
E|----------------------------------------------------------------|

VERSE 2:

only guitar 2 

"audience" bit
e|------------------|
B|------------------|
G|12---10-----13-12-|
D|--12---10/12------|
A|------------------|
E|------------------|

then: repeated several times
e|----------------------------------------------------------------|
B|----------------------------------------------------------------|
G|12--------------------------------------------------------------|
D|----------------------13------12--------------------------------|
A|----------------------------------------------------------------|
E|----------------------------------------------------------------|

last bars of Verse 2 ("the acrobat"):
e|----------------------------------------------------------------|
B|----------------------------------------------------------------|
G|12--------------------------------------------------------------|
D|----------------------13------12------------------------13------|
A|----------------------------------------------------------------|
E|----------------------------------------------------------------|

e|----------------------------------------------------------------|
B|----------------------------------------------------------------|
G|----------------------------------------------------------------|
D|12-------------------13-------12------------------------13------|
A|-------------------------------------------------------[6]------|
E|----------------------------------------------------------------|

note in brackets played by guitar 1  (start of pre-chorus)

- PRE-CHORUS
- CHORUS 2

AFTER CHORUS 2: 

gtr. 1:
e|--------------------------------|
B|--------------------------------|
G|--------------------------------|
D|--------------------------------|  repeated
A|----------------5-------0-------|
E|3---3---1---3-------------------|

then:

gtr. 1: dont let the chords ring out  - listen for proper timing

e|----------------------------------------------------------------|
B|----------------------------------------------------------------|
G|----------------------------------------------------------------|
D|8-----------------------8------8--------------------------------|x6
A|5-----------------------5------5--------------------------------|
E|6-----------------------6------6--------------------------------|

gtr. 2:

e|----------------------------------------------------------------|
B|----------------------------------------------------------------|
G|----------------------------------------------------------------|
D|----------------------------------------------------------------| 
A|----------------------------------------------------------------|
E|3---------------------------------------------------------------|

^^ x2 let ring into second bar

then: 
e|----------------------------------------------------------------|
B|8---------------------------------------------------------------|
G|---------------------8-------7----------------------------------|
D|----------------------------------------------------------------|
A|----------------------------------------------------------------|
E|----------------------------------------------------------------|

^^ x4

SOLO: you've definitely got to listen to the song to get the timing right

gtr. 2:
e|----|-------------------------------------------------------------------|
B|----|-------------6---5---/9--8-----6-8-----13b(15)r13-15-11-13---8h9---|
G|----|-------------------------------------------------------------------|
D|6---|5---3-5------------------------------------------------------------|
A|----|---------5---------------------------------------------------------|
E|----|-------------------------------------------------------------------|

e|--------------------------------------------------------------------------|
B|8-------------------------------------------------------------------------|
G|----------6-7---6-7---------------------------5-5b(6)r5---5h6p5-----------|
D|--------------8-----6-5-------6-8---6---x-5-8---------------------8-------|
A|--------------------------------------------------------------------------|
E|--------------------------------------------------------------------------|

e|-----------------------|
B|8----------------------|
G|--5---5-6--------------|
D|----8-----6-5----------|
A|-----------------------|
E|-----------------------|

gtr. 1: repeats this 
e|-------------------------------|
B|-------------------------------|
G|-------------------------------|   
D|-------------------------------|
A|-------6-------4-5-------------|
E|3----------6-----------4-------|


and plays the following two gtr. 2 parts in the solo an octave lower

gtr. 2                     gtr. 1
e|-----------------------| e|--------------| 
B|-----------------------| B|--------------|
G|6-7---6-7--------------| G|--------------|
D|----8-----6-5----------| D|--------------|
A|-----------------------| A|4-5---4-5-----|
E|-----------------------| E|----6-----4-3-|

e|-----------------------| e|--------------|
B|8----------------------| B|--------------|
G|--5---5-6--------------| G|--------------| 
D|----8-----6-5----------| D|5-------------|
A|-----------------------| A|--3---3-4-----|
E|-----------------------| E|----6-----4-3-|

After the solo the main riff is repeated until the end of the song


- 4. Secret Door

INTRO:

gtr. 1:
e|------------------------6---6---|
B|----6-----------6-------6---6---|
G|7---7-7-7---7---7---7-7-7---7---|
D|8---8-8-8---8---8---8-8-8---8---| x2
A|8---8-8-8---8---8---8-8-8---8---|
E|6---6-6-6---6---6---6-6-6---6---|

gtr. 2:
e|----8-----------10--------------|
B|11---11-10--11------10----------|
G|--------------------------------|
D|--------------------------------| x2
A|--------------------------------|
E|--------------------------------|

vocals come in:

gtr. 1:
e|------------------------6---6--------------10---10--------------5----5----|
B|----6---6---6---7---7-7-7---7--------------11---11---6----------6----6----|
G|7---7-7-7---7---8---8-8-8---8--------------12---12---7----7-7---7----7----|
D|8---8-8-8---8---8---8-8-8---8---12---12-12-12---12---7----7-7---7----7----|
A|8---8-8-8---8---6---6-6-6---6---10---10-10-10---10---5----5-5---5----5----|
E|6---6-6-6---6-------------------10---10-10-10---10------------------------|

e|3-------3---3---5-------5---5---3-------3---3-x-5---------------|
B|4-------4---4---6-------6---6---4-------4---4-x-6---------------|
G|5---5-5-5---5---7---7-7-7---7---5---5-5-5---5-x-7---------------|
D|5---5-5-5---5---7---7-7-7---7---5---5-5-5---5-x-7---------------|
A|3---3-3-3---3---5---5-5-5---5---3---3-3-3---3-x-5---------------|
E|----------------------------------------------------------------|

then:

gtr. 2:

e|--------5-------6---8---5---------------------------------------|
B|8-----------6---------------6---8-------6-------3-------1-------|
G|----7-------------------------------7-------5-------3-------2---|
D|----------------------------------------------------------------|
A|----------------------------------------------------------------|
E|----------------------------------------------------------------|

e|----------------------------------------------------------------|
B|----------------------8/11----11\8------------------------------|
G|0---------------------------------------------------------------|
D|----------------------------------------------------------------|
A|----------------------------------------------------------------|
E|----------------------------------------------------------------|

VERSE:

only bass + drums until "there's absolutely nothing for us here" 

keyboard part:

     theres absolutely nothing for us here
e|---------------------------------3--------------6---------------|
B|-----------------------------------------6--------------6-------|
G|----------------------------------------------------------------|
D|----------------------------------------------------------------|
A|----------------------------------------------------------------|
E|----------------------------------------------------------------|

VERSE:

guitar fills:

after: "to be attempted on a Wednesday night"
e|---------------------------------------------------------------|
B|11\8-----------------------------------------------------------|
G|---------------------------------------------------------------|
D|---------------------------------------------------------------|
A|---------------------------------------------------------------|
E|---------------------------------------------------------------|

  came to  in  this ou   -  ver   -   ture
e|-----8-----------------------------------|
B|11-----------11---10-------11-------8----|
G|-----------------------------------------|
D|-----------------------------------------|
A|-----------------------------------------|
E|-----------------------------------------|

Before Chorus: the eight in brackets is the one from ou-ver-ture above
e|----------------------------------------------------------------|
B|[8]---------------------------------------------8-------11------|
G|----------------------------------------------------------------|
D|----------------------------------------------------------------|
A|----------------------------------------------------------------|
E|----------------------------------------------------------------|

CHORUS 1: ("and the secret door swings behind us")

gtr. 1 - chords above the tab
gtr. 2 - tab

  Dm
e|----------------------------------------------------------------|
B|10------------------------------------------8-/-11----------11\-|
G|----------------------------------------------------------------|
D|----------------------------------------------------------------|
A|----------------------------------------------------------------|
E|----------------------------------------------------------------|

  Gm
e|----------------------------------------------------------------|
B|\8------------------------------------------8-/-11----------11\-|
G|----------------------------------------------------------------|
D|----------------------------------------------------------------|
A|----------------------------------------------------------------|
E|----------------------------------------------------------------|

  Cm
e|----------------------------------------------------------------|
B|\8------------------------------------------8-/-11----------11/-|
G|----------------------------------------------------------------|
D|----------------------------------------------------------------|
A|----------------------------------------------------------------|
E|----------------------------------------------------------------|

  A#                           A (single strum)
e|----------------------------------------------------------------|
B|/15-------------------------------------------------------------|
G|-----------------------------14---------------------------------|
D|----------------------------------------------------------------|
A|----------------------------------------------------------------|
E|----------------------------------------------------------------|

CHORUS 2:
      
  Dm
e|----------------------------------------------------------------|
B|10------------------------------------------8-/-11----------11\-|
G|----------------------------------------------------------------|
D|----------------------------------------------------------------|
A|----------------------------------------------------------------|
E|----------------------------------------------------------------|

  Gm
e|----------------------------------------------------------------|
B|\8------------------------------------------8-/-11----------11\-|
G|----------------------------------------------------------------|
D|----------------------------------------------------------------|
A|----------------------------------------------------------------|
E|----------------------------------------------------------------|

  Cm
e|--------------------------------------------10//13----------13--|
B|\8--------------------------------------------------------------|
G|----------------------------------------------------------------|
D|----------------------------------------------------------------|
A|----------------------------------------------------------------|
E|----------------------------------------------------------------|

  Gm
e|--------------------------------------------10------------------|
B|---------------------------------------------------------11-----|
G|12------------------------------------------------12------------|
D|----------------------------------------------------------------|
A|----------------------------------------------------------------|
E|----------------------------------------------------------------|

gtr. 2 repeats Chorus 1 lead part

gtr. 1 plays the same |except for the last bit

         Dm         F
I’m completely occupied  at all the

= (Dm  |Gm  |Cm  |Dm,F)

OUTRO:

"Fools on parade":

gtr. 1: 

 A#        D#m
Fools on parade
            Gm                  Dm
Cavort and carry on for waiting eyes
                Cm                       Dm
That you would rather be beside than in front of
          Cm                         F
But she’s never been the kind  to be hollowed by the stares

-----------------------------------------------------------

after some time guitar 2 comes in:

gtr. 2: 

e|13---15-13----------13-15-------------------------|
B|-----------15----15---------15--------------------|
G|--------------------------------------------------|
D|--------------------------------------------------| x3
A|--------------------------------------------------|
E|--------------------------------------------------|
      
e|---13-----------------------13--------------------|
B|15---15----13-------------------------------------|
G|--------------------------------------------------|
D|--------------------------------------------------| 
A|--------------------------------------------------|
E|--------------------------------------------------| 


- 5. Potion Approaching

INTRO:

  +   1   +   2   +   3   +   4   +   1   +   2   +   3   +   4   +
e|--|-----------------------------------------------------------------|
B|--|-----------------------------------------------------------------|
G|--|-----------------------------------------------------------------|  
D|--|-----------------------------------------------------------------|
A|2-|-------------2---------------2---------------2---------------2---|
E|0-|-2-------x---0---3-------x---0---2-------x---0---3-------x---0---|

repeat from "1"

VERSE:

repeat riff, then:

  1       2  +  +  3       4  +  +
e|----------------------------------3---3---3---3---3---3---3---3---|
B|----------------------------------3---3---3---3---3---3---3---3---|
G|----------------------------------x---x---x---x---x---x---x---x---|
D|7-------7--7--7--7-------7--7--7--5---5---5---5---5---5---5---5---|
A|7-------7--7--7--7-------7--7--7--5---5---5---5---5---5---5---5---|
E|5-------5--5--5--5-------5--5--5--3---3---3---3---3---3---3---3---|

the thing going up and down at the G chord is the bass not the guitar

bass for guitar: (E-3-2-0-2-3-2-0-3-2.........)

repeat riff, play A-G riff, repeat riff play A-G riff ->

CHORUS:

gtr. 1:
e|2-------2--2--2--2-------2--2--2--2-------2--2--2-----------------|
B|2-------2--2--2--2-------2--2--2--2-------2--2--2-----------------|
G|2-------2--2--2--2-------2--2--2--2-------2--2--2-----------------|
D|4-------4--4--4--4-------4--4--4--4-------4--4--4-----------------|
A|------------------------------------------------------------------|
E|------------------------------------------------------------------|

gtr. 2:
e|-----------------------------------------------------5---4---5----|
B|-----------------------------------------------------5---4---5----|
G|-----------------------------------------------------6---5---6----|
D|-----------------------------------------------------7---6---7----|
A|------------------------------------------------------------------|
E|------------------------------------------------------------------|

gtr. 1:
e|2-------2--2--2--2-------2--2--2--2-------2--2--2-----------------|
B|2-------2--2--2--2-------2--2--2--2-------2--2--2-----------------|
G|2-------2--2--2--2-------2--2--2--2-------2--2--2-----------------|
D|4-------4--4--4--4-------4--4--4--4-------4--4--4-----------------|
A|------------------------------------------------------------------|
E|------------------------------------------------------------------|

gtr. 2: lets chord ring

e|2--------------------------------------------------------------|
B|2--------------------------------------------------------------|
G|2--------------------------------------------------------------|
D|4--------------------------------------------------------------|
A|---------------------------------------------------------------|
E|---------------------------------------------------------------|


in the last bar gtr. 2 changes to Am and lets the chord ring out

gtr. 2
e|-----------------------------------------------------5---4---5----|
B|-----------------------------------------------------5---4---5----|
G|-----------------------------------------------------6---5---5----|
D|-----------------------------------------------------7---6---7----|
A|------------------------------------------------------------------|
E|------------------------------------------------------------------|

BREAK: (gtr. 1 plays main riff)

gtr. 2:
e|------------------------------------------------------------------|
B|5/7--5/8--5/7--5/8--5/7--5/8---5--7--5----------------------------|
G|---------------------------------------6--4--2--------------------|
D|--------------------------------------------------2--4-----2------|
A|-------------------------------------------------------------3----|
E|------------------------------------------------------------------|

end on this = start of Verse 2:

e|---------------------------------------------------------------|
B|---------------------------------------------------------------|
G|---------------------------------------------------------------|
D|---------------------------------------------------------------|
A|---------------------------------------------------------------|
E|2--------------------------------------------------------------|

- Chorus 2

SOLO:

gtr. 1: repeated throughout the whole solo

e|2-------2--2--2--5---4---5----|
B|2-------2--2--2--5---4---5----|
G|2-------2--2--2--6---5---6----|
D|4-------4--4--4--7---6---7----|
A|------------------------------|
E|------------------------------|

gtr. 2:
                                                all 1/4 step bends
e|---------------------------------------------------------------|
B|------------------------------------------------5b-------------|
G|------------------------4-4-4-4-4-4-6---6---6--------6b-5b-6b--|
D|4-4-4-4-4-4-7---7---7------------------------------------------|
A|---------------------------------------------------------------|
E|---------------------------------------------------------------|
                
           hold 1/4 bend  
e|---------------------------------------------------------------|
B|---------------------5-6-7---7-7-7-7-5---5---5--------------5--|
G|-----------6-6-6-6-r---------------------------4b(5)r4---------|
D|---------------------------------------------------------------|
A|---------------------------------------------------------------|
E|---------------------------------------------------------------|

e|---------------------------------------------------------------|
B|---------------------------------------------------------------|
G|6~~~---6-6-6-6~~~------------6~~~~--6-6-6-6~~~-----------------|
D|---------------------------------------------------------------|
A|---------------------------------------------------------------|
E|---------------------------------------------------------------|
 
CHORUS:

gtr. 1: same as in solo

gtr. 2: almost the same
                                                all 1/4 step bends
e|---------------------------------------------------------------|
B|------------------------------------------------5b-------------|
G|------------------------4-4-4-4-4-4-6---6---6--------6b-5b-6b--|
D|4-4-4-4-4-4-7---7---7------------------------------------------|
A|---------------------------------------------------------------|
E|---------------------------------------------------------------|
                
         hold 1/4 bend  
e|---------------------------------------------------------------|
B|---------------------5-6-7---7-7-7-7-5-------------------------|
G|-----------6-6-6-6-r---------------------------4b(5)r4---2-----|
D|---------------------------------------------------------------|
A|---------------------------------------------------------------|
E|---------------------------------------------------------------|

e|---------------------------------------------------------------|
B|---------------------------------------------------------------|
G|---------------------2~----4~--------------------2-------------|
D|4------4--4--4--4-------------4------------------2-------------|
A|---------------------------------------------------------------|
E|---------------------------------------------------------------|

BREAK 2:

gtr. 1:
e|2--------------------------------------------------------------|
B|2--------------------------------------------------------------|
G|2--------------------------------------------------------------|
D|4--------------------------------------------------------------|
A|---------------------------------------------------------------|
E|---------------------------------------------------------------|

gtr. 2:
e|--------------------------------------------------|
B|--------------------------------------------------|
G|--------------------------------------------------|
D|--------------------------------------------------|
A|--------------------------------------------------|
E|0h2---5-0----5-2---5-0---5-2---5-0---5-2---5-0--5-|

e|--------------------------------------------------|
B|--------------------------------------------------|
G|--------------------------------------------------|
D|--------------------------------------------------|
A|------------------------------------5-----4-------|
E|2---5-0---5-2---5-0---5-2---5-0---5-----5------0--|

BRIDGE:

gtr. 1 starts playing at C# note of guitar 2 in previous bar
                                                         
e|---------------------------------------------------------------|
B|(9)r-7-------9b10r9----7\2-----2-3--2--0--2--------------------|
G|---------------------------------------------------------------|
D|---------------------------------------------------------------|  x2
A|---------------------------------------------------------------|
E|---------------------------------------------------------------|

gtr. 2:
                                                  
e|---------------------------------------------------------------|
B|---------------------------------------------------------------|
G|---------------------------------------------------------------|
D|---------------------------------------------------4b~~~~~-----|
A|---------------------------------------------------------------|
E|2--------------------------------------------------------------|
                                                    
e|---------------------------------------------------------------|
B|---------------------------------------------------------------|
G|--------------------------------------------9b10~r-9---6~~~~---|
D|---------------------------------------------------------------|
A|---------------------------------------------------------------|
E|---------------------------------------------------------------|

When the vocals come in:

gtr. 2:
e|-----------------|
B|-----------------|
G|-----------------|
D|4---7------------| the last two notes are harmonics
A|x---x---5*-------|
E|2---5-------5*---|

- LAST VERSE SHORT


- 6. Fire and The Thud

Intro

Alex guitar:
e|----9-|         |----9---------|
B|6/7---|         |6/7---4-5-6/7-|
G|------|x7 then: |--------------| Then repeat 1st riff x2 then the 2nd riff once
D|------|         |--------------|
A|------|         |--------------|
E|------|         |--------------|

Jamie guitar:
e|----------------------------------------------|                 
B|---------------------------6/7--------4-5-6/7-|                          
G|----------------------------------------------| (Jamie plays this notes exactly
D|----------------------------------------------|  when Alex plays them)
A|----------------------------------------------|  
E|----------------------------------------------|      

Then Jamie does a bend:

e|---|
B|9^-|
G|---|
D|---|
A|---|
E|---|

Verse

Alex guitar:   
e|-2-x-2-2-2-2-2--2-2-2-|
B|-2-x-2-2-2-2-2--2-5-4-|
G|-2-x-2-2-2-2-2--2-2-2-|(repeat through verse)
D|-4-x-4-4-4-4-4--4-4-4-|
A|-4-x-4-4-4-4-4--4-4-4-|
E|-2-x-2-2-2-2-2--2-2-2-|                 

Jamie's guitar:
e|----9--------|  |-----------------|
B|6/7-------9^-|  |-----------------|
G|-------------|  |-----------------|
D|-------------|  |-----------------|
A|-------------|  |7/9---11/12\9\4--|(Jamie plays this again but in a low volume at next verse)
E|-------------|  |-----------------|

Chorus:

Alex guitar:
F#m A Cbm F#m F#m Cbm F#m Cbm

Jamie's Guitar:
e|-----------------------------------|
B|-----------------------------------|
G|-----------------------------------|
D|-----------------------------------|
A|9----12------9------------------4^-|
E|-----------------------------------|

Verse 2

Alex guitar: Same as verse 1

Jamie's guitar:
e|-------------------------------------------|
B|-------------------------------------------|
G|--------------------11-14-11-13-11-13^-11\-|
D|-------------------------------------------|
A|-------------------------------------------|
E|------2---------2~~------------------------|

Chorus 2

Alex guitar: Same as chorus 1

Jamie's guitar:
e|--------------------------------|
B|4-6------9------8-----7-----7/6-|
G|--------------------------------|
D|--------------------------------|
A|--------------------------------|
E|--------------------------------|

"And now you are hiding in my soup":

Alex guitar:
Cbm F#m

Jamie's guitar:
e|---------------|
B|-9^--6-7/[14]--|
G|---------------|Repeat
D|---------------|
A|---------------|
E|---------------|

Solo

Alex guitar:
F#m

Jamie's guitar:
e|-------------------------|
B|[12]^-----------12--10---|
G|------11-14---11--11--11-|Repeat but [12] bend is 13 now
D|-------------------------|
A|-------------------------|
E|-------------------------|

Jamie plays a riff some times, here it is:
e|-------------------|
B|--12--10--131210---|
G|11--11--11------11-|
D|-------------------|
A|-------------------|
E|-------------------|

Outro
Alex guitar:
F#m until "Id like to poke" then: F#m A Cbm F#m

Jamie plays this riff like once and then do some times a bend:
e|-------------------|  |-----|
B|--12--10--131210---|  |-----|
G|11--11--11------11-|  |-11^-|
D|-------------------|  |-----|
A|-------------------|  |-----|
E|-------------------|  |-----|


-7. Cornerstone

Tuning:Standard
Key: A major

Hey, this is my first tab. I hope the format is alright. 
Some sections might be a bit off for timing, but
it's not too difficult of a song so timing shouldn't 
be too much of a problem. Other than that, the notes are as 
perfect as I could make them.

Chords:| A | D | A | D | F#m | F#m | D, Bm | A |

Intro:
e|-------------------------------------|-------------------------------------|
B|-------------------------------------|----9----10--------------------------|
G|-----------------9-------11----------|-------------------------------------|
D|---/9---/11--------------------------|---------------11--------------------|
A|-------------------------------------|-------------------------------------|
E|-------------------------------------|-------------------------------------|

0:28
e|-------------------------------------|-------------------------------------|
B|-------------------------------------|-------------------------------------|
G|------11-------------9---------------|-----11------------------------------|
D|-------------11----------------------|-------------11---\---7--------------|
A|-------------------------------------|-------------------------------------|
E|-------------------------------------|-------------------------------------|

0:37
e|-------------------------------------|-------------------------------------|
B|-------------------------------------|-------------------------------------|
G|-------------------------------------|-------------------------------------|
D|----12----11----9----11------7-------|-------------------------------------|
A|-------------------------------------|-------------------------------------|
E|-------------------------------------|-------------------------------------|

e|-------------------------------------|-------------------------------------|
B|-------------------------------------|-------------------------------------|
G|-------------------------------------|----11--------18------\11------------|
D|----12----11----9----11--------------|-------------------------------------|
A|-------------------------------------|-------------------------------------|
E|-------------------------------------|-------------------------------------|

e|-------------------------------------|-------------------------------------|
B|-------------------------------------|-------------------------------------|
G|-------------------------------------|----11----------9--------------------|
D|-------------------------------------|----------11-------------------------|
A|-------------------------------------|-------------------------------------|
E|-------------------------------------|-------------------------------------|

e|-------------------------------------|-------------------------------------|
B|-------------------------------------|-------------------------------------|
G|-------------------------------------|-------------------------------------|
D|-------------------------------------|-------------------------------------|
A|-------------------------------------|-------------------------------------|
E|-------------------------------------|-------------------------------------|

                                       Chorus:
e|-------------------------------------|---14--------------------------------|
B|-------------------------------------|---15--------------------------------|
G|-------------11----------------------|---14--------------------------------|
D|-------------------11----------------|-------------------------------------|
A|-------------------------------------|-------------------------------------|
E|-------------------------------------|-------------------------------------|

e|-------------------------------------|---9---------------------------------|
B|--------12--------------12-----------|--10---------------------------------|
G|------------11------11---------------|--11---------------------------------|
D|----------------12-------------------|-------------------------------------|
A|-------------------------------------|-------------------------------------|
E|-------------------------------------|-------------------------------------|

e|-------------------------------------|--10---------------------------------|
B|--------10--------------10-----------|--12---------------------------------|
G|------------11------11---------------|--11---------------------------------|
D|----------------12-------------------|--12---------------------------------|
A|-------------------------------------|-------------------------------------|
E|-------------------------------------|-------------------------------------|

e|-------------------------------------|--12---------------------------------|
B|--------12--------------12-----------|--14---------------------------------|
G|------------13------13---------------|--13---------------------------------|
D|----------------14-------------------|--14---------------------------------|
A|-------------------------------------|-------------------------------------|
E|-------------------------------------|-------------------------------------|

e|-------------------------------------|-------------------------------------|
B|-------------------------------------|-------------------------------------|
G|----14----11----13----9--------------|-------------------------------------|
D|---------------------------11--------|----9-----------11-------------------|
A|-------------------------------------|----------------------------12-------|
E|-------------------------------------|-------------------------------------|

Verse 2:
e|---------9--7--9--5------------------|---------9--7--9--5------------------| X3
B|---------------------7--9------------|---------------------7--9------------|
G|-----9---------------------6---------|-----9---------------------6---------|
D|-------------------------------------|-------------------------------------|
A|-------------------------------------|-------------------------------------|
E|-------------------------------------|-------------------------------------|

e|-------------------------------------|
B|--10---------------------------------|
G|-------------------------------------|
D|-------------------------------------|
A|-------------------------------------|
E|-------------------------------------|

Bridge:
e|-------------------------------------|-------------------------------------|
B|-------------------------------------|-------------------------------------|
G|----14----11----13----9--------------|-------------------------------------|
D|---------------------------11--------|-------------------------------------|
A|-------------------------------------|-------------------------------------|
E|-------------------------------------|-------------------------------------|

e|-------------------------------------|-------------------------------------|
B|-------------------------------------|-------------------------------------|
G|----14----11----13----9--------------|-------------------------------------|
D|---------------------------11--------|-------------------------------------|
A|-------------------------------------|-------------------------------------|
E|-------------------------------------|-------------------------------------|

e|-------------------------------------|-------------------------------------|
B|--------------------------/14--------|----17----15-------------------------|
G|----14----11----13----9--------------|-----------------18----16----18------|
D|-------------------------------------|-------------------------------------|
A|-------------------------------------|-------------------------------------|
E|-------------------------------------|-------------------------------------|

e|-------------------------------------|-------------------------------------|
B|----17----15-------------------------|-------------------------------------|
G|----------------18----16----18-------|----18~------------------------------|
D|-------------------------------------|-------------------------------------|
A|-------------------------------------|-------------------------------------|
E|-------------------------------------|-------------------------------------|

Chorus:
e|---14--------------------------------|
B|---15--------------------------------|
G|---14--------------------------------|
D|-------------------------------------|
A|-------------------------------------|
E|-------------------------------------|

e|-------------------------------------|---9---------------------------------|
B|--------12--------------12-----------|--10---------------------------------|
G|------------11------11---------------|--11---------------------------------|
D|----------------12-------------------|-------------------------------------|
A|-------------------------------------|-------------------------------------|
E|-------------------------------------|-------------------------------------|

e|-------------------------------------|--10---------------------------------|
B|--------10--------------10-----------|--12---------------------------------|
G|------------11------11---------------|--11---------------------------------|
D|----------------12-------------------|--12---------------------------------|
A|-------------------------------------|-------------------------------------|
E|-------------------------------------|-------------------------------------|

e|-------------------------------------|-------------------------------------|
B|-----10--------------10--------------|--------10---------------------------|
G|---------10------10------10----------|----10------10------10----14----11---|
D|-------------12--------------12------|----------------12-------------------|
A|-------------------------------------|-------------------------------------|
E|-------------------------------------|-------------------------------------|

e|-------------------------------------|-------------------------------------|
B|-------------------------------------|-------------------------------------|
G|----13----9--------------------------|----------------------------9--------|
D|---------------11--------------------|--11--12--11--9------9--11-----9/11--|
A|-------------------------------------|-----------------12------------------|
E|-------------------------------------|-------------------------------------|

e|-------------------------------------|-------------------------------------|
B|-------------------------------------|-------------------------------------|
G|-------------------------------------|------------------------14---11------|
D|-------------------------------------|--11--12--11--9------9---------------|
A|-------------------------------------|-----------------12------------------|
E|-------------------------------------|-------------------------------------|

e|-------------------------------------|-------------------------------------|
B|-------------------------------------|-------------------------------------|
G|----13----9--------------------------|----14----13----11----9--------------|
D|---------------11--------------------|---------------------------11--------|
A|-------------------------------------|-------------------------------------|
E|-------------------------------------|-------------------------------------|

e|-------------------------------------|-------------------------------------|
B|-------------------------------------|-------------------------------------|
G|-------------------------------------|-------------------------------------|
D|-------------------------------------|-------------------------------------|
A|----9----------/14-------------------|----9----------/14--------9--11------|
E|-------------------------------------|-------------------------------------|

Outro:
e|---------9--7--9--5------------------|---------9--7--9--5------------------| X3
B|---------------------7--9------------|---------------------7--9------------|
G|-----9---------------------6---------|-----9---------------------6---------|
D|-------------------------------------|-------------------------------------|
A|-------------------------------------|-------------------------------------|
E|-------------------------------------|-------------------------------------|

e|-------------------------------------|----5--------------------------------|
B|----10-------------------------------|-------------------------------------|
G|-------------------------------------|-------------------------------------|
D|-------------------------------------|-------------------------------------|
A|-------------------------------------|-------------------------------------|
E|-------------------------------------|-------------------------------------|


- 8. Dance Little Liar 

Intro/ Verse 1:
e|---------------------------------------------------------------------------|
B|---------------------------------------------------------------------------|
G|---------------------------------------------------------------------------|
D|---------------------------------------------------------------------------|
A|---4--/6-------------------------------------------------------------------|
E|-----------2---------------------------------------------------------------|


Chorus:
    A               f#      c#              E
e|--5-5-5-5-5-5-5-5-2-2-2-2-4-4-4-4-4-4-4-4-0-0-0-0--|
B|--5-5-5-5-5-5-5-5-2-2-2-2-5-5-5-5-5-5-5-5-0-0-0-0--|
G|--6-6-6-6-6-6-6-6-2-2-2-2-6-6-6-6-6-6-6-6-1-1-1-1--|
D|--7-7-7-7-7-7-7-7-4-4-4-4-6-6-6-6-6-6-6-6-2-2-2-2--|
A|--7-7-7-7-7-7-7-7-4-4-4-4-4-4-4-4-4-4-4-4-2-2-2-2--|
E|--5-5-5-5-5-5-5-5-2-2-2-2-4-4-4-4-4-4-4-4-0-0-0-0--|
 |       gtr2:                                       |
e|---------------------------------------------------|
B|---------------------------------------------------|
G|---------------------------------------------------|
D|---------------------------------------------------|
A|---------------------------------------------------|
E|--5~~-------------2~~-----4~~-------------0~~------|

    f#      E       g#
e|--2-2-2-2-0-0-0-0-4-4-4-4--|
B|--2-2-2-2-0-0-0-0-4-4-4-4--|
G|--2-2-2-2-1-1-1-1-4-4-4-4--|
D|--4-4-4-4-2-2-2-2-6-6-6-6--|
A|--4-4-4-4-2-2-2-2-6-6-6-6--|
E|--2-2-2-2-0-0-0-0-4-4-4-4--|
 |       gtr 2:              |
e|---------------------------|
B|---------------------------|
G|---------------------------|
D|---------------------------|
A|---------------------------|
E|--2~~-----0~~-----4~~-----4|

Post chorus:
    c#      g#      f#
e|--4-4-4-4-4-4-4-4-2-2-2-2--|
B|--5-5-5-5-4-4-4-4-2-2-2-2--|
G|--6-6-6-6-4-4-4-4-2-2-2-2--|
D|--6-6-6-6-6-6-6-6-4-4-4-4--| x4
A|--4-4-4-4-6-6-6-6-4-4-4-4--|
E|--4-4-4-4-4-4-4-4-2-2-2-2--|

2nd guitar plays intro

Verse 2:
REST x4
e|-------------------|
B|-------------------|
G|-------------------| x4
D|-------------------|
A|---4--/6-----------|
E|-----------2-------|

Chorus 2:
Only 2nd guitar, same as chorus 1

Bridge:
   c#              g#              A               c#      E       f#
e|-4-4-4-4-4-4-4-4-4-4-4-4-4-4-4-4-5-5-5-5-5-5-5-5-4-4-4-4-7-7-7-7-9--|
B|-5-5-5-5-5-5-5-5-4-4-4-4-4-4-4-4-5-5-5-5-5-5-5-5-5-5-5-5-9-9-9-9-11-|
G|-6-6-6-6-6-6-6-6-4-4-4-4-4-4-4-4-6-6-6-6-6-6-6-6-6-6-6-6-9-9-9-9-11-|
D|-6-6-6-6-6-6-6-6-6-6-6-6-6-6-6-6-7-7-7-7-7-7-7-7-6-6-6-6-9-9-9-9-11-|
A|-4-4-4-4-4-4-4-4-6-6-6-6-6-6-6-6-7-7-7-7-7-7-7-7-4-4-4-4-7-7-7-7-9--|
E|-4-4-4-4-4-4-4-4-4-4-4-4-4-4-4-4-5-5-5-5-5-5-5-5-4-4-4-4-7-7-7-7-9--|
 |       gtr2:                                                        |
e|--------------------------------------------------------------------|
B|--------------------------------------------------------------------|
G|--------------------------------------------------------------------|
D|--------------------------------------------------------------------|
A|-----------------4~~-----------------------------4~~-----7~~-----9~~|
E|-2~~-----------------------------2~~--------------------------------|


   f#                      E                               g#    g#
e|-9--9--9--9--9--9--9--9--7-7-7-7-7-7-7-7-7-7-7-7-7-7-7-7-11----11---|
B|-11-11-11-11-11-11-11-11-9-9-9-9-9-9-9-9-9-9-9-9-9-9-9-9-12----12---|
G|-11-11-11-11-11-11-11-11-9-9-9-9-9-9-9-9-9-9-9-9-9-9-9-9-13----13---|
D|-11-11-11-11-11-11-11-11-9-9-9-9-9-9-9-9-9-9-9-9-9-9-9-9-13----13---|
A|-9--9--9--9--9--9--9--9--7-7-7-7-7-7-7-7-7-7-7-7-7-7-7-7-11----11---|
E|-9--9--9--9--9--9--9--9--7-7-7-7-7-7-7-7-7-7-7-7-7-7-7-7-11----11---|
 |       gtr2:                                                        |
e|--------------------------------------------------------------------|
B|--------------------------------------------------------------------|
G|--------------------------------------------------------------------|
D|--------------------------------------------------------------------|
A|-9~~---------------------7~~-------------7~~-------------11----11---|
E|--------------------------------------------------------------------|

Solo:
e|--------------------------------------------|
B|--------------------------------------------|
G|--------------------------------------------|
D|--------------------------------------------| x2
A|-4-4-4-4--7----4-4-4-4--7-----4-4-4----7----|
E|--------------------------------------------|

e|--------------------------------------------|
B|--------------------------------------------|
G|--------------------------------------------|
D|--------------------------------------------|
A|-4-4-4-4--7----4-4-4-4--7-----4-4-4----7----|
E|--------------------------------------------|           \
 |       gtr2:                                |            x4
e|--------------------------------------------|           /
B|-9~~-----------2~~--------------------------|
G|--------------------------------------------|
D|--------------------------------------------|
A|--------------------------------------------|
E|--------------------------------------------|

e|--------------------------------------------|
B|--------------------------------------------|
G|--------------------------------------------|
D|--------------------------------------------|
A|-4-4-4-4--7----4-4-4-4--7-----4-4-4----7----|
E|--------------------------------------------|           \
 |       gtr2:                                |            x4
e|-12-12-12-9----12-12-12-9-----12-12----9----|           /
B|--------------------------------------------|
G|--------------------------------------------|
D|--------------------------------------------|
A|--------------------------------------------|
E|--------------------------------------------|


   A               f#      c#              E       f#              E       c#            g#
e|-5-5-5-5-5-5-5-5-2-2-2-2-4-4-4-4-4-4-4-4-0-0-0-0-2-2-2-2-2-2-2-2-0-0-0-0-4-4-4-4-4-4-4-4-|
B|-5-5-5-5-5-5-5-5-2-2-2-2-5-5-5-5-5-5-5-5-0-0-0-0-2-2-2-2-2-2-2-2-0-0-0-0-5-5-5-5-5-5-5-4-|
G|-6-6-6-6-6-6-6-6-2-2-2-2-6-6-6-6-6-6-6-6-1-1-1-1-2-2-2-2-2-2-2-2-1-1-1-1-6-6-6-6-6-6-6-4-|
D|-7-7-7-7-7-7-7-7-4-4-4-4-6-6-6-6-6-6-6-6-2-2-2-2-4-4-4-4-4-4-4-4-2-2-2-2-6-6-6-6-6-6-6-6-|
A|-7-7-7-7-7-7-7-7-4-4-4-4-4-4-4-4-4-4-4-4-2-2-2-2-4-4-4-4-4-4-4-4-2-2-2-2-4-4-4-4-4-4-4-6-|
E|-5-5-5-5-5-5-5-5-2-2-2-2-4-4-4-4-4-4-4-4-0-0-0-0-2-2-2-2-2-2-2-2-0-0-0-0-4-4-4-4-4-4-4-4-|
 |       gtr2:                                                                           
 |
e|--9-9-12-9-9-12-9-12---9-9-12-9-9-12-9-12------9-9-12-9-9-12-9-12---9-9-12-9-9-12-9-12---|
B|-----------------------------------------------------------------------------------------|
G|-----------------------------------------------------------------------------------------|
D|-----------------------------------------------------------------------------------------|
A|-----------------------------------------------------------------------------------------|
E|-----------------------------------------------------------------------------------------|

Outro:
   A               f#      c#              E       f#              E       g#
e|-5-5-5-5-5-5-5-5-2-2-2-2-4-4-4-4-4-4-4-4-0-0-0-0-2-2-2-2-2-2-2-2-0-0-0-0-4-4-4-4-4-4-4-4~|
B|-5-5-5-5-5-5-5-5-2-2-2-2-5-5-5-5-5-5-5-5-0-0-0-0-2-2-2-2-2-2-2-2-0-0-0-0-4-4-4-4-4-4-4-4~|
G|-6-6-6-6-6-6-6-6-2-2-2-2-6-6-6-6-6-6-6-6-1-1-1-1-2-2-2-2-2-2-2-2-1-1-1-1-4-4-4-4-4-4-4-4~|
D|-7-7-7-7-7-7-7-7-4-4-4-4-6-6-6-6-6-6-6-6-2-2-2-2-4-4-4-4-4-4-4-4-2-2-2-2-6-6-6-6-6-6-6-6~|
A|-7-7-7-7-7-7-7-7-4-4-4-4-4-4-4-4-4-4-4-4-2-2-2-2-4-4-4-4-4-4-4-4-2-2-2-2-6-6-6-6-6-6-6-6~|
E|-5-5-5-5-5-5-5-5-2-2-2-2-4-4-4-4-4-4-4-4-0-0-0-0-2-2-2-2-2-2-2-2-0-0-0-0-4-4-4-4-4-4-4-4~|
 |       gtr2:                                                                           
 |    End
e|-----------------------------------------------------------------------------------------|
B|-9~~------2~~-----x7---------------------------------------8th:---9~~------1~~---------9~|
G|-----------------------------------------------------------------------------------------|
D|-----------------------------------------------------------------------------------------|
A|-----------------------------------------------------------------------------------------|
E|-----------------------------------------------------------------------------------------|

- 9. Pretty Visitors

VERSE:

I think it's played like this but with an octave pedal to make it sound an octave lower

I think Jamie Cook doesn't tune down to Drop D when it's played live 

e|---------------------------------------------------------------|
B|---------------------------------------------------------------|
G|---------------------------------------------------------------| x2
D|---------------------------------------------------------------|
A|9-9-9-9-5-5-5-5-9----------------------------------------------|
E|---------------------------------------------------------------|


this here and the other riffs without the pedal:
e|---------------------------------------------------------------|
B|---------------------------------------------------------------|
G|---------------------------------------------------------------|
D|---------------------------------------------------------------| x1
A|2-2-2-----------2-2-2-2-------0--------------------------------|
E|--------2---2-2---------5---5-0--------------------------------|


then octave pedal riff x2


after that this riff changes slightly:

e|---------------------------------------------------------------|
B|---------------------------------------------------------------|
G|---------------------------------------------------------------|
D|---------------------------------------------------------------| x1
A|2-2-2-2-------2---2-2-2-0-0-0-0--------------------------------|
E|--------2---2--------------------------------------------------|

PRE-CHORUS:

e|---------------------------------------------------------------|
B|---------------------------------------------------------------|
G|---------------------------------------------------------------|
D|---------------------------------------------------------------|
A|---------------------------------------------------------------|
E|2~~~~~~~--------2-------------2~~~~~~~-------2-----------------|

e|---------------------------------------------------------------|
B|---------------------------------------------------------------|
G|---------------------------------------------------------------|
D|---------------------------------------------------------------|
A|--------4~~~~~~--------5~~~~~---------4~~~~~--------5~~~~~~~---|
E|2~~~~~~~--------2~~~~~~--------2~~~~~~~-------2~~~~~~----------|

CHORUS:

gtr. 1:
e|---------------------------------------------------------------|
B|---------------------------------------------------------------|
G|---------------------------------------------------------------|
D|---------------------------------------------------------------| x4
A|-----------------------------4--5------5-------5---------------|
E|2-------2-------2-------2--5-------------------------3b(4)-----|

CHORUS 2 + 3:

guitar 1 stays the same

guitar 2: roughly
                                                          
e|9-------10-------9-------10------10------9-------10------10b---|
B|----7--------7-------7-------7-------7-------7-------7---------|
G|---------------------------------------------------------------|
D|---------------------------------------------------------------|
A|---------------------------------------------------------------|
E|---------------------------------------------------------------|

e|---------9---------------9---------------10-------------10b(11)|
B|7----------------7---------------7----------------7------------|
G|---------------------------------------------------------------|
D|---------------------------------------------------------------|
A|---------------------------------------------------------------|
E|---------------------------------------------------------------|

end on:

gtr. 1:

e|---------------------------------------------------------------|
B|---------------------------------------------------------------|
G|---------------------------------------------------------------|
D|---------------------------------------------------------------|
A|---------------------------------------------------------------|
E|2--------------------------------------------------------------|

gtr. 2:

e|12b(14)--------------------------------------------------------|
B|---------------------------------------------------------------|
G|---------------------------------------------------------------|
D|---------------------------------------------------------------|
A|---------------------------------------------------------------|
E|---------------------------------------------------------------|

BRIDGE:

gtr. 2: while the organ is playing

e|9---/-/-/---14-----------------(10)-r-9-----6------------------|
B|---------------------------------------------------------------|
G|---------------------------------------------------------------|
D|---------------------------------------------------------------|  x2
A|---------------------------------------------------------------|
E|---------------------------------------------------------------|

gtr. 1 comes in:
e|---------------------------------------------------------------|
B|---------------------------------------------------------------|
G|---------------------------------------------------------------|
D|------------------------4-----3--------3-----4-----------------|
A|--------5-------4-----5---------5--------------4---------------|
E|2--------------------------------------------------------------|

gtr. 1 continues this riff throughout the solo

SOLO:

played with slide 

place the slide not between the frets but over them to get the best tone

gtr. 2:
e|---------------------------------------------------------------|
B|---------------------------------------------------------------|
G|---------------------------------------------------------------|
D|-----------------------------------------------6--/---7--------|
A|--------9\--------------9\-------------9-\-5-------------------|
E|---------------------------------------------------------------|

e|---------------------------------------------------------------|
B|-------------------------------------------------------[13b14]-|
G|-------------------------11-\-10-----------10-/-11-------------|
D|--------12\------11---12-------------12------------11\\\-------| x2
A|9--------------------------------------------------------------|
E|---------------------------------------------------------------|

the bend in brackets at the end is only played at the second time

LAST VERSE:

while bass is playing:

i - index finger
r - ring finger


HARMONICS

  r
  r
  i
e|---------------------------------------------------------------|
B|---------------------------------------------------------------|
G|---------------------------------------------------------------|
D|4*4*4*4*4*4*4*4*-----------------------------------------------|
A|4*4*4*4*4*4*4*4*-----------------------------------------------|
E|2*2*2*2*2*2*2*2*-----------------------------------------------|

- * = harmonics  

when the lyrics are repeated:

d - down-stroke
u - up-stroke

  d u d u d u d u   u d u d u d u
e|--------------------------------|
B|--------------------------------|
G|--------------------------------|
D|--------------------------------|
A|--------------5-----------------|
E|2-2-2-2-2-2-2-----2-2-2-2-2-2-2-|

last bar before chorus:

  d u d u d u d u     d   d   d
e|--------------------------------|
B|--------------------------------|
G|--------------------------------|
D|--------------------------------|
A|--------------5-----5---5-------|
E|2-2-2-2-2-2-2--------------3b(4)|

- CHORUS



- 10. The Jewellers Hands

INTRO

Jamie (Tremolo Picking)
|----------------|
|--13----15-13---|
|----------------|
|----------------|
|----------------|
|----------------|



VERSE 1

"You think excitement has receded..." '0:43'
Jamie (Picked normally)
|----------------|
|--13----15-13---|
|----------------|
|----------------|
|----------------|
|----------------|



CHORUS

Alex & Jamie
|--4-----3-----3-----3----|
|--4-----4-----3-----4----|
|--5-----5-----4-----5----| x 3
|-------------------------|
|-------------------------|
|-------------------------|

"The Procession..." '1:33'

|--4-----3-|
|--4-----3-|
|--5-----4-|
|----------|
|----------|
|----------|


"All drowned..." '1:38'
Alex
|------3--------8-10-8-------------|
|----4--------9--------8---9-------|
|--5-------10----------------7\5---|
|----------------------------------|
|----------------------------------|
|----------------------------------|

Jamie (Tremolo Picking, Carry on through first half of 2nd Verse)
|----------------|
|--13----15-13---|
|----------------| x6
|----------------|
|----------------|
|----------------|



VERSE 2

"Inevitables gather..." '2:08'
Jamie (Tremolo Picking)
|-------------------------|
|--13---15-13----8---9-6--|
|-------------------------|
|-------------------------|
|-------------------------|
|-------------------------|

|-----------------------22---20--|
|--13-----20--18--20-------------|
|--------------------------------|
|--------------------------------|
|--------------------------------|
|--------------------------------|



CHORUS 2

Alex & Jamie
|--4-----3-----3-----3----|
|--4-----4-----3-----4----|
|--5-----5-----4-----5----| x 3
|-------------------------|
|-------------------------|
|-------------------------|

"The Procession..." '2:57'

|--4-----3-----3-----3----|
|--4-----3-----3-----3----|
|--5-----4-----4-----4----|
|-------------------------|
|-------------------------|
|-------------------------|



OUTRO


Alex (First repetition alone)
|--------------------------------------------------------------|
|--------------------------------------------------------------|
|--------------------------------------------------------------| x 2
|--------------------------------------------------------------|
|--3----3/6----6/11----11/15----15\10----10\6------------------|
|-------------------------------------------------\11----8\3---|

Jamie (Comes in after Alex's first repetition)
|------------------------------------------------------------------|
|------------------------------------------------------------------|
|------------------------------------------------------------------|
|------------------------------------------------------------------|
|---1/3----3/6----6/11----11/15----15\10----10\6-------------------|
|----------------------------------------------------\11----8\3----|

(This part above is repeated at 4:02 and 4:41)




"If you've a lesson to teach me, I'm listening..." '3:32'
Jamie
|------8--8---------------4-----------3-------|
|----8------8-----------4---4-3-----4---4-6---|
|--8-----------8--7---5-----------5-----------| x6
|---------------------------------------------|
|---------------------------------------------|
|---------------------------------------------|




"If you've a lesson to teach me, don't deviate..." '4:33'

Jamie (Tremolo Picking, repeat to fade)
|-------------------------|
|--13---15-13----8---9-6--|
|-------------------------|
|-------------------------|
|-------------------------|
|-------------------------|

|-----------------------22---20--|
|--13-----20--18--20-------------|
|--------------------------------|
|--------------------------------|
|--------------------------------|
|--------------------------------|



Chords:

1. My Propeller 

Intro:

Em G
C Am C G
Em G Em G
Em G Em G


            Em                G   Em     G
If you can summon the strength,   tow me
   Em         G           Em   G
I can’t hold down the urgency
               Em             G    Em   G
You’ve got to make your decent   slowly
     Em           G          Em  G
And oil up those sticky keys


C               F#m  B
Coax me out, my love
                   F
And have a spin of my propeller


Em G Em G
Em G Em G


(* = just skip the G)

        Em     * Em   G
It's a necessary evil
Em        G       Em   G
No cause for emergency
            Em           G   Em    G
Borrow the beak of a bald   eagle
    Em        G      Em  G
Oh, momentary synergy


C               F#m
Coax me out, my love
B           Em
Sink into tomorrow
C               F#m  B
Coax me out, my love
                   F
And have a spin of my propeller



Em G
C Am C G
Em G Em G
Em G Em G

Em        G  C        Am      C       Bm      Em        G   C
My propeller   won’t spin and I can’t get it started on my own
     Am       C   Bm
When are you arriving?
Em        G  C        Am      C       Bm      Em        G   C
My propeller   won’t spin and I can’t get it started on my own
     Am       C   Bm
When are you arriving?
Em        G  C        Am      C       Bm      Em        G   C
My propeller   won’t spin and I can’t get it started on my own
     Am       C   Bm
When are you arriving?
Em        G C   Am   C   Bm   Em
My propelleeeeeeeeer

 
2. Crying Lightning 

Am          F           Am             F
Outside the cafe by the cracker factory
         Am           F     C     E
You were practicing a magic trick
       Am           F            Am         F
And my thoughts got rude, as you talked and chewed
       Am           F        C   E
On the last of your pick and mix


                           Am              F                   Am         F
Said your mistaken if your thinking that I haven't been caught cold before
       Am            F          C    E
As you bit into your strawberry lace
           Am             F              Am         F
And then a flip in your attention in the form of a gobstopper
                Am              F        C    E
Is all you have left and it was going to waste


Am
Your past-times, consisted of the strange

And twisted and deranged

And I love that little game you had called

Crying lightning

And how you like to aggravate the ice-cream man on rainy afternoons


                     Am            F
The next time that I caught my own reflection
       Am             F
It was on it's way to meet you
Am          F              C    E
Thinking of excuses to postpone
                    Am                F
You never look like yourself from the side
         Am              F
But your profile did not hide
             Am           F              C      E
The fact you knew I was approaching your throne


            Am           F                 Am       F
With folded arms you occupy the bench like toothache
                    Am                 F            C   E
Saw them, puff your chest out like you never lost a war
             Am            F             Am            F
And though I try so not to suffer the indignity of a reaction
          Am           F                C    E
There was no cracks to grasp or gaps to claw


         F              Dm      
And your past-times, consisted of the strange
    Am
And twisted and deranged
      Am
And I hate that little game you had called
F      Dm
Crying lightning
                    Am
And how you like to aggravate the icky man on rainy afternoons


F    Dm
Uninviting
    Am 
But not half as impossible as everyone assumes
        F      Dm        Am
You are crying lightning



Your past-times, consisted of the strange

And twisted and deranged

And I hate that little game you had called
F      Dm
Crying lightning
Am
Crying lightning
F      Dm
Crying lightning
Am
Crying lightning


     F              Dm
Your past-times, consisted of the strange
    Am
And twisted and deranged
      
And I hate that little game you had called
F      Dm
Crying

 
3. Dangerous Animals 

 
4. Secret Door

intro: Bb-Ebm x2

E||------6-8-6-5-6/10-5---------------|
B||-----------------------------------|
G||-----------------------------------|
D||-----------------------------------|
A||-----------------------------------|
E||-----------------------------------|

Bb        Ebm
Fools On Parade
                Gm
Cavort and carry on
             Dm
The wait in lines,
               Cm                           Dm
That you would rather be beside than infront of
          Cm                               Dm
But shes never been the kind to be hollowed by the stares.

E||------5----6-8-5----------------------------------------------------------------|
B||--8-----6--------6---8--6-------------------------8/11---11/8-------------------|
G||---7-------------------7---5--7---5---------------------------------------------|
D||---------------------------------8----7--5--------------------------------------|
A||--------------------------------------------------------------------------------|
E||--------------------------------------------------------------------------------|


Gm-Dm-Bb
She swam out of tonights fantasm
Grabbed my hand and made it very clear
There's absolutely nothing for us here
It's a magnolia celebration to be attempted on a wednesday night
It's better than to get a reputation for a miserable little tyke
                                                                             Gm-Bb-Dm
At least thats the conclusion you came to in this overture

Dm                          Gm
The secret door swings behind us
             Cm
shes saying nothing
          Bb         Dm
shes just wriggling along

Gm-Dm-Bb
Her arms were folded most indignant
Not looking like she was soon to leave
I had to squint in order to believe
and then like a pull and a push in on a bookshelf
I'm unveiling the unexpected
I was …
…stand corrected
                                                                             Gm-Bb-Dm
How could such a creature survive in such a habitat

Dm                                        Gm
The secret door swings behind us
                         Cm
She's saying nothing
                Gm         Gm-Bb-Dm
She's just wriggling along
Dm                         Gm
and even if they were to find us
           Cm                Dm
I wouldn't notice, i'm completely occupied
F
at all the


Bb        Ebm
Fools On Parade
                  Gm
Cavort and carry on
                Dm
The wait in lines,
              Cm                           Dm
That you would rather be beside than infront of
          Cm                                         F
But shes never been the kind to be hollowed by the stares.

Fools on parade
Frolic and f*ck about to make her gaze
Turn to a scribble on a page by a picture,
That holds her options
But you’re daft to think she'd care

Fools on parade
Fools on parade                               F
Fools on parade ...... to singalong


5. Potion Approaching

Intro:
F#m G F#m G F#m
G F#m


       G         F#m        G
I was biting the time zone,
         F#m          G            F#m         G
And we embellish the banks of our bloodstreams,
          F#m            G      A
And threw caution to the colourful
             G                 F#m  G
And then we fell asleep in the car,
          F#m    G      F#m         G
Until the bumps woke me up in your grip
        F#m           G       A
And the tide took me to your mouth,
           G                         F#m  G
And then swept me back down to your palms
               F#m       G          A
It’s them that put me inside the reminder


       G               F#m
That yours is the only ocean,
                          A F#m
(Yours Is the only ocean)
                         A F#m  
That I wanna swing from,
                         A F#m
Yours is the only ocean,
                     A
That I wanna hang on


F#m G F#m G
F#m G F#m

              G   F#m      G
I've got this ego mechanic,
              F#m           G      F#m  G
She’s always trying to give me vitamins
              F#m          G       A
Oh she’d be frightened of your reflection,
      G                 F#m  G
I preferred her as a cartoon
           F#m G      F#m        G
If I could be someone else for a week,
     F#m       G           A
I’d spend it chasing after you,
                G               F#m  G
Cos she’s not shattering my attitude,
          F#m      G         A
No matter how she folds the potion


G                 F#m
Yours is the only ocean,
                          A F#m
(Yours Is the only ocean)
                          A F#m
That I wanna swing from,
                          A F#m
Yours is the only ocean,
                        A  F#m
That I want to hang on-...-to

A F#m A F#m
A F#m

        A     F#m
(I’m swinging on)

A F#m A F#m A F#m A

F#m          A    F#m    A
Yours is the only ocean,
F#m          A    F#m    A
Yours is the only ocean,
F#m          A    F#m    A
Yours is the only ocean,
F#m          A    F#m    A
Yours is the only ocean


F#m

[In the next section, the F#m chord is 3 times longer than the E chord.]

E F#m
E F#m    E F#m
E F#m    E

F#m                E  F#m              E
Potion approaching,  shield your eyes,
F#m                E  F#m        E 
Potion approaching,   visualize,
F#m             E  F#m             E
Holding a token,  swollen in size,
F#m                    E    F#m 
Potion approaching,  shield your eyes


E
F#m G F#m G
F#m G F#m

                G       F#m          G
Oh but if we’re gonna escape though,
    F#m             G         F#m    G
We really ought to think it through,
          F#m         G          A        G   F#m
Would you like me to build you a go kart?


6. Fire and the Thud


Capo: 2nd Fret

While playing Em* you have to play this riff on the 2nd string up while playin Em:

B --2---3---2


For C* you have to play this riff on the 3rd string up whilst playin the C chord:

G --4--3--

Em* 

    Em*
you showed me my tommorow
  Em*
beside a box of matches
  Em*
a welcome threating stir

Em*

   Em*
my hopes of being stolen
      Em*
might just ring true
                   Em*
depends who you prefer

Em*

Em                     G
If its true your gonna run away
C                      C*
tell me where ill meet you there

Em C* (x2)

     Em*
Am I snapping the excitement?
     Em*
If i pack away the laughter
    Em*
and tell you how it feels

Em*

         Em*
And does burden come to meet ya
       Em*
If ive questions of the feature
     Em*
that rolls on your dream reel

Em*

    Em            G 
The day after you stole my heart
     C                       C*                             Em    C*
Everything I touched told me it would be better shared with you

Em C* 

         Am           Em
And your hiding in my soup
        Am                Em
and the book reveals your face
              Am              Em
and as you're splashing in my eyelids
    Am               Em       Am
the concentration continually breaks
        Em                 Am  
I did request the mark you cast
         Em
It didnt heal as fast
  C      
I hear your voice in silences
                             C*                 Em     C*
will the teasing of the fire be followed by the thud

Em C*

       Em
In the jostling crowd your not allowed to tell the truth and the photo 
         Em*
booths a liar

Em*

        Em*
And the sharpened explanations
    Em*                             Em*   
but theres no screaming reason to enquire

Em*

            Em                 G                C                        
I'd like to poke them in their prying eyes with things theyve never seen 
C*                         Em
if it smacks them in their temples


7. Cornerstone 

Guitar 1 (Alex Turner)


Intro
A

Verse 1
A
I thought I saw you in the battleship
D                    Bm
but it was only a look-a-like
A
She was nothing but a vision trick
D              Bm
Under the warning light
F#m                 A                                   F#m
She was close, close enough to be your ghost
A
But my chances turned to toast
D                              Bm                         A                   (F#m   A   F#m)
When i asked her if i could call her your name

Verse 1 [cont] (Same pattern)
I thought I saw you in the rusty hook
Huddled up in a wicker chair
I wandered over for a closer look
And kissed who ever was sitting there

She was close, and she held me very tightly
'Til I asked awfully politely, please
Can I call you her name.

(To transition into the chorus play this; A F#m A F#m E, listen out for the strumming)

Chorus
D                                          Bm
And I elongated my lift home,
F#m                                                   D
Yeah, I let him go the long way 'round
Bm
I smelt your scent on the seatbelt
E
And kept my shortcuts to myself
A D E (Come in with A at the end of the chorus and play these chords like in the verse)

Verse 2 (Same Pattern)
A
I thought I saw you in the parrots beak,
D                        Bm
Messing with the smoke alarm,
A
It was too loud for me to hear her speak,
D                     Bm
And she had a broken arm,
F#m                 A                                   F#m
It was close, so close that the walls were wet
A
And she wrote it out in letra-set
D           Bm                     C#m
No, you can't call me her name

Bridge
A                               C#m
Tell me where's your hiding place
A                     C#m
I'm worried I'll forget your face
F#m
And I've asked everyone
Bm                                 E                        (E6 optional here)
I'm beginning to think I imagined you all along

Chorus
D                                          Bm
And I elongated my lift home,
F#m                                                   D
Yeah, I let him go the long way 'round
Bm
I smelt your scent on the seatbelt
Dm
And kept my shortcuts to myself


Solo
A D Bm x2 (Play this like you would in the verse)
F#m Bm
D E

Verse 3
A
I saw your sister in the cornerstone
D                             Bm
On the phone to the middle man
A
When I saw that she was on her own
D                             Bm
I thought she might understand
F#m                              A
She was close, well you couldn't get much closer
F#m             A                                       D
She said i'm really not supposed to but yes,
                              Bm                   A
You can call me anything you want.

Fade out.


8. Dance Little Liar  

C#m                  F#m
I heard the truth was built to bend
    C#m     F#m           C#m          
A mechanism to suspend the guilt 
        F#m                C#m
Is what you are requiring still
              F#m
You've got, to dance little liar

 C#m                     F#m
Just like those fibbs to pop and fizz
                C#m               F#m
And you'll be forced to take that awful quiz
  C#m
And you're bound to trip
       F#m                   C#m
And she'll detect the fiction on
               F#m
Your lips and dig a contradicion up

 A             F#m         C#m
And the clean coming will hurt
                          E      F#m
And you can never get it spotless
              E              Ab
When theres dirt beneth the dirt
                          C#m
The liar takes alot less time
    
    C#m                F#m
Im sure its clear and plain to me
    C#m       F#m              C#m
Its not an alibi you need just yet#
             F#m                        C#m
Oh no its something for those beads of sweat
         F#m
Yes that will get you back to normal

C#m                    F#m                      C#m
    And after you have dabbed the patch you’ll grieve
           F#m                   C#m                
And then proceed to scratch the varnish off 
   F#m
That newly added calmness
 C#m          F#m
So as not to raise any alarms too soon


 A             F#m         C#m
And the clean coming will hurt
                          E      F#m
And you can never get it spotless
              E              Ab
When theres dirt beneth the dirt
                          C#m
The liar takes alot less time

( faster strumming here) 
F#m                    C#m
Time to decide on his saunter
              F#m
Have you got itchy bones? 
        C#m
And in all your time alone
         F#m                  C#m ( or C# ) 
Can you hack your mind being riddled
          E          Ab
with the wrong memories?
 
( instrumental)
  C#m|C#m|C#m|C#m|F#m|F#m|F#m|F#m|E|E|E|E|Ab (Ab Played faster and 5 times)
A             F#m         C#m
And the clean coming will hurt
                          E      F#m
And you can never get it spotless
              E              Ab
When theres dirt beneth the dirt


9. Pretty Visitors


10. The Jeweller's Hands 

Intro: Cm Fm6 / Fm/C  (2x)  (one bar Cm half bar Fm6 and the other half Fm/C)

Cm                       Fm6    Fm/C         (Vers 2x)
 Fiendish wonder in the carnival's wake
Cm                       Fm6    Fm/C
 Though it caresses once again irritate
Cm              
 Tread softly stranger
Fm6                  Fm/C        Cm        Fm6 Fm/C
Move over toward the danger that you seek

You think excitement has receded
And the mirror distracts
The logic of the trance
Quickly reaches and grasps
Handsome and faceless
And weightless, your imagination roams

             Ab      (Eb   Bb) Cm            (Chorus)
And now it's no ones fault but yours
       G                 Cm
At the foot of the house of cards
                  Ab         G
You thought you'd never get obsessed
                G                Cm
You thought the wolves would be impressed
             Ab (Eb) Cm
And you're a sinking stone
              G                               Cm
But you know what it's like to hold the jeweller's hand
         Ab            G   Cm (<-beginning of the intro then verse)
That procession of pioneers all drowned

                                             
In the moonlight they're more thrilling      (Vers 2x)
Those things that he knows
As he leads you through the grinning
Bubble blowers in the snow
Watching his exit
Is like falling off the ferry in the night

The inevitables gather to push you around
Any old voice makes a punishing sound
He became laughter's assassin
Shortly after he showed you what it was


And now it's no ones fault but yours         (Chorus)
At the foot of the house of cards
You thought you'd never get obsessed
You thought the wolves would be impressed
And you're a sinking stone
But you know what it's like to hold the jeweller's hand
That procession of pioneers all drowned 

hold Cm (drums)

Outro: Cm Eb Ab G Ab G Cm G  (2x)  (every chord of the outro A half bar)

Cm            Eb        Ab                   (Outro 6x)
 If you've a lesson to teach me,
     G       Ab G        Cm    G
I'm listening, ready to learn
Cm              Eb         Ab
 There's no one here to police me,
     G        Ab  G          Cm   G
I'm sinking in, until you return

If you've a lesson to teach me,
Don't deviate, don't be afraid
Without the last corner piece I can't calibrate,
Let's get it ingrained

If you've a lesson to teach me,
I'm listening, ready to learn
There's no one here to police me,
I'm sinking in, until you return

If you've a lesson to teach me,
Don't deviate, don't be afraid
Without the last corner piece I can't calibrate,
Let's get it ingrained

If you've a lesson to teach me,
I'm listening, ready to learn
There's no one here to police me,
I'm sinking in, until you return

If you've a lesson to teach me,
Don't deviate, don't be afraid
Without the last corner piece I can't calibrate,
Let's get it ingrained

End on Cm or fade out...
Enjoy!


/ ... slide up
\ ... slide down
h ... hammer-on
b ... bend
r ... release
~ ... vibrato


Credit to:
libertines4ever
chainet 
ozi76
jonnopne
cachuchis 
Sanjuro333
MyNameIsRamone 
Anzelmo 
jc9393 
cri-cri 
Sparkface 
comments
We did not receive enough feedback on this tab! Please rate:
print report bad tab
1 2 3 4 5
2 comments total.
0 reply
libertines4ever wrote on June 9 2011, 12:00 pm

I think you shouldn't have taken my Pretty Visitors tab but a drop D one instead

0 reply
libertines4ever wrote on June 9 2011, 12:03 pm

well they're all rated bad so...

I want to post or [tab]
guest
You may want to rate the tab now too:
select rating
Please do not post tabs as comments. Select "correction" instead!