Oops, an error
Loading. Please wait.

Library Pictures Bass Tab

ver1
ver1

Whole song

More versions @911Tabs.com
10,039 views 48 this week
6 commentsread comments
1 2 3 4 5
excellent!
x 7
Autoscroll
+/-
esc
set tempo
stop
Contributor
Difficulty
intermediate
WARNING: You are trying to view
                                    content from Ultimate-Guitar.com
                                    in an unauthorized application,
                                    which is prohibited.

                                    Please use an official Ultimate
                                    Guitar Tabs application for iPhone,
                                    iPad or Android to access legitimate
                                    chords, guitar, bass, and drum tabs
                                    from Ultimate-Guitar.com database.

                                    Type "ultimate guitar tabs" in Apple
                                    App Store's or Android Market's
                                    search to find the application.
G|----------------------------------------------------------|
D|----------------------------------------------------------|
A|---9---9-12-11----9-12-11-----9-12-11-9-12-11-------------| X8
E|----------------------------------------------------------|


G|----------------------------------------------------------|
D|----------------------------------------------------------|
A|---8---8-12-11----8-12-11-----8-12-11-8-12-11-------------| 
E|----------------------------------------------------------|

G|----------------------------------------------------------|
D|----------------------------------------------------------|
A|---8---8-12-11----8-12-11-----8-12-11*--------------------| *STOP
E|----------------------------------------------------------|


G|----------------------------------------------------------|
D|----------------------------------------------------------|
A|----------------------------------------------------------| X8
E|--2---2-5-4---2-5-4--2-5-4-2-5-4--------------------------|

Bass Fill-Solo whatever


G|----------------------------------------------------------|   *Slide to 16(F#)
D|----*16---------------------------------------------------|
A|----------------16-15----12--14---------------------------| 
E|----------------------------------------------------------|

Slow Bridge


G|----------------------------------------------------------|
D|----------------------------------------------------------|
A|----------------------------3---3---5---------------------| X3
E|--5---5--7---2---2---0-2-5--------------2--2--0-2-4-------|

Fourth time "10.9.8.7.6.5.4.3.2.1"



G|----------------------------------------------------------|
D|----------------------------------------------------------|
A|----------------------------3---3--------9--7-------------| 
E|--5---5--7---2---2---0-2-5---------------------9*---------|
 This last riff is played exactly as Alex sings "3.2.1"


G|----------------------------------------------------------|
D|----------------------------------------------------------|
A|----------------------------------------------------------| X5
E|--2---2-5-4---2-5-4--2-5-4-2-5-4--------------------------|

After this Alex sings alone and the band will play on note on th hits which is

E|--2-------------------------------------------------------|

Pretty Simple, and the final part of the song is:

G|----------------------------------------------------------|
D|----------------------------------------------------------|
A|----------------------------------------------------------| X3
E|--2---2-5-4---2-5-4--2-5-4-2-5-4--------------------------|

G|----------------------------------------------------------|
D|----------------------------------------------------------|
A|----------------------------------------------------------| 
E|--2-5-4-2-5-4-2-5-4-2-5-4----2----------------------------|

This final part above ^ isn't what Nick plays on the Jools Holland show. Nick is 
just sliding up and down the E 
string, essentially just making noise. So i just tabbed out Jamie's guitar part 
which is what Nick would be 
playing.

It took me about an hour to tab and learn, so please giv me some feedback, whether 
it be kind or cruel!

Cheers
comments
print report bad tab
6 comments total. Showing first comments.
+1 reply
wawagner92 wrote on May 26 2011, 08:23 am

Like it very much, but I just don't hear an F at the end of the first riff. It sounds like F# all the way.

Besides that, at the end of the third time Nick plays the "Slow Bridge"[right after "Where you've been"], there's a little trick:

G|---------------------------------------------------------|
D|---------------------------------------------------------|
A|----------------------------3---3---5--------------------|
E|--5---5--7---2---2---0-2-5--------------2--2--02-02-4----|

Btw thank you so much for tabbing!

0 reply
mutedmathamatic wrote on May 27 2011, 10:34 am

yeah thanks for the correction. I wrote this tab off of the jools holland performance so the slow bridge was a little difficult to tab out. Oh and as for the f on the last riff of the first verse it's actually correct on the jools holland but incorrect in the studio version. i think Nick messed up there live but it actually doesnt sound all that bad. listen:http://www.youtube.com/watch?v=SHAieW-W7fc

0 reply
IndieJoe wrote on June 20 2011, 04:32 am

I think the very end part should be an octave higher, such as this;
G|---------------------------------------|
D|---------------------------------------|
A|9-12-11-9-12-11-9-12-11-9-12-11-9\-----|
E|----------------------------------2----|

I want to post or [tab]
guest
You may want to rate the tab now too:
select rating
Please do not post tabs as comments. Select "correction" instead!