Oops, an error
Loading. Please wait.

Little Illusion Machine Wirral Riddler Bass Tab

1,126 views 6 this week
no commentswrite comment
1 2 3 4 5
excellent!
x 2
Autoscroll
+/-
esc
set tempo
stop
Contributor
Difficulty
intermediate
WARNING: You are trying to view
                                    content from Ultimate-Guitar.com
                                    in an unauthorized application,
                                    which is prohibited.

                                    Please use an official Ultimate
                                    Guitar Tabs application for iPhone,
                                    iPad or Android to access legitimate
                                    chords, guitar, bass, and drum tabs
                                    from Ultimate-Guitar.com database.

                                    Type "ultimate guitar tabs" in Apple
                                    App Store's or Android Market's
                                    search to find the application.
Artist: Arctic Monkeys

Album: The Hellcat Spangled Shalalala (Single)



All tabs by Pedro Zappa
-----------------------------------------------------------------------------
-----------------------------------------------------------------------------


2. Little Illusion Machine (Wirral Riddler)


(wait)

G||--------------------||
D||--------------------||
A||-----------4----4---||
E||--------------------||
    i    i    i    i  

Verse 1

G||--------------------|--------------------||  x3
D||--------------------|--------------------||
A||-----------5-5------|-----------5-5------||
E||-3-3--6-3-------6-3-|---3--6-3-------6---||
    i    i    i    i     i    i    i    i
G||--------------------|--------------------||
D||--------------------|--------------------||
A||-----------5-5------|-----------4----4---||
E||-3-3--6-3-------6-3-|---3--6-3-----------||
    i    i    i    i     i    i    i    i

G||---------------------------|---------------------------||
D||---------------------------|---------------------------||
A||-10-10--13-10--------13-10-|----10--13-10--------13----||
E||---------------10-10-------|---------------10-10-------||
    i      i      i     i       i      i      i     i   
G||---------------------------|-------------------------||
D||---------------------------|-------------------------||
A||-10-10--13-10--------13-10-|----10--13-10------------||
E||---------------10-10-------|---------------10-9--8-6-||
    i      i      i     i       i      i      i     i   
G||---------------------------|---------------------------||
D||---------------------------|---------------------------||
A||-10-10--13-10--------13-10-|----10--13-10--------13----||
E||---------------10-10-------|---------------10-10-------||
    i      i      i     i       i      i      i     i   
G||---------------------------|-------------------------||
D||---------------------------|-------------------------||
A||-10-10--13-10--------13-10-|----10--13-10--4-----4---||
E||---------------10-10-------|-------------------------||
    i      i      i     i       i      i      i     i   

G||---------------------------|----------------------------||
D||---------------------------|----------------------------||
A||-13-13--13-13--13-13-13-12-|----12--12-12--11-11--11-11-||
E||---------------------------|----------------------------||
    i      i      i     i       i      i      i      i 

Chorus 1

G||--------------------|--------------------|
D||------5-3--5-3------|--------------------|
A||----------------3-5-|---5--5-3----5--5-3-|
E||-3------------------|--------------------|
    i    i    i    i     i    i    i    i
G||--------------------|--------------------|
D||--------------------|--------------------|
A||-6----6----6----6-3-|---3--3-3--3-1--1-1-|
E||-------------6------|--------------------|
    i    i    i    i     i    i    i    i

G||--------------------|--------------------|
D||------5-3--5-3------|--------------------|
A||----------------3-5-|---5--5-3----5--5-3-|
E||-3------------------|--------------------|
    i    i    i    i     i    i    i    i
G||--------------------|--------------------|
D||--------------------|--------------------|
A||-6----6----6----6-3-|---3--3-3--4----4---|
E||-------------6------|--------------------|
    i    i    i    i     i    i    i    i

Verse 2

G||---------------------------|---------------------------|
D||---------------------------|---------------------------|
A||-10-10--13-10--------13-10-|----10--13-10--------13----|
E||---------------10-10-------|---------------10-10-------|
    i      i      i     i       i      i      i     i   
G||---------------------------|-------------------------||  x2
D||---------------------------|-------------------------||
A||-10-10--13-10--------13-10-|----10--13-10------------||
E||---------------10-10-------|---------------10-9--8-6-||
    i      i      i     i       i      i      i     i   

G||--------------------|--------------------||  x3
D||--------------------|--------------------||
A||-----------5-5------|-----------5-5------||
E||-3-3--6-3-------6-3-|---3--6-3-------6---||
    i    i    i    i     i    i    i    i
G||--------------------|--------------------||
D||--------------------|--------------------||
A||-----------5-5------|-----------4----4---||
E||-3-3--6-3-------6-3-|---3--6-3-----------||
    i    i    i    i     i    i    i    i
G||---------------------------|----------------------------||
D||---------------------------|----------------------------||
A||-13-13--13-13--13-13-13-12-|----12--12-12--11-11--11-11-||
E||---------------------------|----------------------------||
    i      i      i     i       i      i      i      i 

Chorus

G||--------------------|--------------------|
D||------5-3--5-3------|--------------------|
A||----------------3-5-|---5--5-3----5--5-3-|
E||-3------------------|--------------------|
    i    i    i    i     i    i    i    i
G||--------------------|--------------------|
D||--------------------|--------------------|
A||-6----6----6----6-3-|---3--3-3----1--1-1-|
E||-------------6------|--------------------|
    i    i    i    i     i    i    i    i
G||--------------------|--------------------|
D||------5-3--5-3------|--------------------|
A||----------------3-5-|---5--5-3----5--5-3-|
E||-3------------------|--------------------|
    i    i    i    i     i    i    i    i
G||--------------------|--------------------|
D||--------------------|--------------------|
A||-6----6----6----6-3-|---3--3-3--3-1--1-1-|
E||-------------6------|--------------------|
    i    i    i    i     i    i    i    i

G||--------------------|--------------------|
D||--------------------|--------------------|
A||-------------1--3-5-|---5--5-3----5--5-3-|
E||-3----3-1--3--------|--------------------|
    i    i    i    i     i    i    i    i
G||--------------------|--------------------|
D||--------------------|--------------------|
A||-6----6----6-8--1-3-|---3--3-3----1--1-1-|
E||--------6-----------|--------------------|
    i    i    i    i     i    i    i    i
G||--------------------|--------------------|
D||------5-3--5-3------|--------------------|
A||----------------3-5-|---5--5-3----5--5-3-|
E||-3------------------|--------------------|
    i    i    i    i     i    i    i    i
G||--------------------|--------------------|
D||--------------------|--------------------|
A||-6----6----6-6--5-3-|---3--3-3--5----5---|
E||--------------------|--------------------|
    i    i    i    i     i    i    i    i

Outro

G||--------------------|--------------------|
D||--------------------|--------------------|
A||-6-6--6------3--6---|------------------1-|
E||--------3--6------6-|---6--6-6--6-1--3---|
    i    i    i    i     i    i    i    i
G||--------------------|--------------------|
D||--------------------|--------------------|
A||-6-6--6------3--6---|-------------1------|
E||--------3--6------6-|---6--6-1--3----3-1-|
    i    i    i    i     i    i    i    i
G||--------------------|--------------------|
D||--------------------|--------------------|
A||-6-6--6------3--6---|--------------------|
E||--------3--6------6-|---6--6-6--6-4--3-1-|
    i    i    i    i     i    i    i    i
G||--------------------|--------------------|----------|
D||--------------------|--------------------|----------|
A||-3-3--3-3--3-3----3-|-3-3--3-3--4----4---|----------|
E||--------------------|--------------------|----------|
    i    i    i    i     i    i    i    i     i    i

G||--------------------|--------------------|
D||--------------------|--------------------|
A||-------------1--3-5-|---5--5-3----5--5-0-|
E||-3----3-1--3--------|--------------------|
    i    i    i    i     i    i    i    i
G||--------------------|--------------------|
D||--------------------|--------------------|
A||-6----6----6-8--1-3-|---3--3-------------|
E||--------6-----------|--------3----3--1-2-|
    i    i    i    i     i    i    i    i
G||--------------------|--------------------|
D||--------------------|--------------------|
A||-------------1--3-5-|---5--5-3----5--5-0-|
E||-3----3-1--3--------|--------------------|
    i    i    i    i     i    i    i    i
G||--------------------|--------------------|
D||--------------------|--------------------|
A||-6----6----6-8--1-3-|---3--3------3--5---|
E||--------6-----------|--------3---------1-|
    i    i    i    i     i    i    i    i
G||--------------------|--------------------|
D||--------------------|--------------------|
A||-------------1--3-5-|---5--5-3----5--5-0-|
E||-3----3-1--3--------|--------------------|
    i    i    i    i     i    i    i    i
G||--------------------|--------------------|
D||--------------------|--------------------|
A||-6----6----6-8--1-3-|---3--3-------------|
E||--------6-----------|--------3----1--1-1-|
    i    i    i    i     i    i    i    i

G||--------------------|--------------------|
D||--------------------|--------------------|
A||-------------1--3-5-|---5--5-3----5--5-0-|
E||-3----3-1--3--------|--------------------|
    i    i    i    i     i    i    i    i
G||--------------------|--------------------|
D||--------------------|--------------------|
A||-6----6----6-5--4-3-|--------------------|
E||--------6-----------|--------------------|
    i    i    i    i     i    i    i    i


Tab by Pedro Zappa
-----------------------------------------------------------------------------
-----------------------------------------------------------------------------
comments
We did not receive enough feedback on this tab! Please rate:
print report bad tab
1 2 3 4 5
I want to post or [tab]
guest
You may want to rate the tab now too:
select rating
Please do not post tabs as comments. Select "correction" instead!