Oops, an error
Loading. Please wait.

Suck It And See Bass Tab

ver1
ver1

Album

Whole song

Interactive

More versions @911Tabs.com
14,963 views 33 this week
4 commentsread comments
1 2 3 4 5
excellent!
x 5
Autoscroll
+/-
esc
set tempo
stop
Contributor
Difficulty
intermediate
Hey! There's an official Ultimate Guitar app which is ideal
for learning songs when you're away from computer. Get the app
WARNING: You are trying to view
                                    content from Ultimate-Guitar.com
                                    in an unauthorized application,
                                    which is prohibited.

                                    Please use an official Ultimate
                                    Guitar Tabs application for iPhone,
                                    iPad or Android to access legitimate
                                    chords, guitar, bass, and drum tabs
                                    from Ultimate-Guitar.com database.

                                    Type "ultimate guitar tabs" in Apple
                                    App Store's or Android Market's
                                    search to find the application.
Artist: Arctic Monkeys

Album: Suck It And See



All tabs by Pedro Zappa
-----------------------------------------------------------------------------
-----------------------------------------------------------------------------


1. She's Thunderstorms


Intro (guitar only)

Pre-Verse

G||--------------------|--------------------|----------------------------|
D||--------------------|--------------------|----------------------------|
A||--------------------|--------------------|-10-10--10-10--10-10--10-10-|
E||-3-3--3-3--3-3--3-3-|-3-3--3-3--3-3--3-3-|----------------------------|

G||--------------------|
D||--------------------|
A||-7-7--7-7--5-5--5-5-|
E||--------------------|


Verse

G||----------------------------|----------------------------|
D||----------------------------|----------------------------|
A||-10-10--10-12-----10--------|----------------------------|
E||----------------------10----|-12-14--12------------------|
            
G||--------------------|--------------------||
D||--------------------|--------------------||  x2
A||--------------------|-5-5--5-7----9--9---||
E||-5-5--5-7----5--3---|--------------------||

---

G||--------------------|--------------------|| 
D||--------------------|--------------------||  x2
A||--------------------|-5-5--5-7----9--9---||
E||-5-5--5-7----5--3---|--------------------||

---

G||-------------------|-------------------|
D||-9-9----9------9---|-------------------|
A||------9------9---9-|-7-7----7------7-9-|
E||-------------------|------7------7-----|

G||--------------------|--------------------|
D||--------------------|--------------------|
A||--------------------|-5-5--5-7----9--7-5-|
E||-5-5--5-7----5--3---|--------------------|


Chorus

G||--------------------|------------------------||
D||--------------------|------------------------||  x2
A||-3-3--3-8--6-5--6-8-|-----------10-10--10-10-||
E||--------------------|-3-3--3-3---------------||

G||--------------------|
D||--------------------|
A||-3-3--3-8--6-5--6-8-|
E||--------------------|

G||--------------------|--------------------||
D||--------------------|--------------------||  x2
A||--------------------|-5-5--5-7----9--9---||
E||-5-5--5-7----5--3---|--------------------||

---

G||------------------------|--------------------||
D||------------------------|--------------------||  x2
A||-----------10-12--10----|--------8--6-5--6-8-||
E||-3-3--3-3------------10-|-8-8--8-------------||

G||--------------------|--------------------||
D||--------------------|--------------------||  x2
A||--------------------|-5-5--5-7----9--9---||
E||-5-5--5-7----5--3---|--------------------||

G||--------------------|
D||--------------------|
A||--------------------|
E||-3------------------|


Verse 2

G||----------------------------|----------------------------|
D||----------------------------|----------------------------|
A||-10-10--10-12-----10--------|----------------------------|
E||----------------------10----|-12-14--12------------------|
            
G||--------------------|--------------------||
D||--------------------|--------------------||  x2
A||--------------------|-5-5--5-7----9--9---||
E||-5-5--5-7----5--3---|--------------------||

---

G||--------------------|--------------------|| 
D||--------------------|--------------------||  x2
A||--------------------|-5-5--5-7----9--9---||
E||-5-5--5-7----5--3---|--------------------||

---

G||-------------------|-------------------|
D||-9-9----9------9---|-------------------|
A||------9------9---9-|-7-7----7------7-9-|
E||-------------------|------7------7-----|

G||--------------------|--------------------|
D||--------------------|--------------------|
A||--------------------|-5-5--5-7----9--7-5-|
E||-5-5--5-7----5--3---|--------------------|


Chorus 2

G||--------------------|------------------------||
D||--------------------|------------------------||  x2
A||-3-3--3-8--6-5--6-8-|-----------10-10--10-10-||
E||--------------------|-3-3--3-3---------------||

G||--------------------|
D||--------------------|
A||-3-3--3-8--6-5--6-8-|
E||--------------------|

G||--------------------|--------------------||
D||--------------------|--------------------||  x2
A||--------------------|-5-5--5-7----9--9---||
E||-5-5--5-7----5--3---|--------------------||


Interlude

G||--------------------|--------------------||
D||--------------------|--------------------||  x2
A||--------------------|-33-----33------55--||
E||-77-----77------33--|--------------------||


G||--------------------|--------------------|
D||--------------------|--------------------|
A||------------------3-|-5------5----5--7---|
E||-5------5----3--5---|--------------------|

G||--------------------|--------------------|
D||--------------------|--------------------|
A||-3------3-------3---|-5------5----7------|
E||------------3-------|----------------5---|


Solo

G||------------------------|--------------------||
D||------------------------|--------------------||  x2
A||-----------10-12--10----|--------8--6-5--6-8-||
E||-3-3--3-3------------10-|-8-8--8-------------||

G||--------------------|--------------------||
D||--------------------|--------------------||  x2
A||--------------------|-5-5--5-7----9--9---||
E||-5-5--5-7----5--3---|--------------------||


Verse 3

G||------------------------|--------------------||
D||------------------------|--------------------||  x2
A||-----------10-12--10----|--------8--6-5--6-8-||
E||-3-3--3-3------------10-|-8-8--8-------------||

G||--------------------|--------------------||
D||--------------------|--------------------||  x2
A||--------------------|-5-5--5-7----9--9---||
E||-5-5--5-7----5--3---|--------------------||

G||------------------------|--------------------||
D||------------------------|--------------------||  x4
A||-----------10-12--10----|--------8--6-5--6-8-||
E||-3-3--3-3------------10-|-8-8--8-------------||

G||--------------------|
D||--------------------|
A||--------------------|
E||-3------------------|



-----------------------------------------------------------------------------
-----------------------------------------------------------------------------


2. Black Treacle


Verse

G||------------------------------|------------------------------|
D||------------------------------|------------------------------|
A||------------10--10-10--12-10\-|------------10--10------------|
E||-3-3/--(10)-------------------|-3-3/--(10)--------12--10-12\-|

G||------------------------------|----------|-----------------------|
D||------------------------------|----------|-----------------------|
A||------------10--10-10--12-10\-|-5-7--5-0-|-3-3-----3--3-3-----3--|
E||-3-3/--(10)-------------------|----------|------3h5-5------3h5-5-|

G||------------------------------|--------------------|--------------------|
D||------------------------------|--------------------|--------------------|
A||------------10--10-10--12-10\-|-5-5----5--7-5----5-|-3-3----3--3-3----3-|
E||-3-3/--(10)-------------------|------5---------5---|------3---------3---|


Chorus
                         
G||------------------------||
D||------------------------||  x3
A||------------------------||
E||-3-3--3-3--3-3--3/(10)\-||

G||--------------------|--------------------||
D||--------------------|--------------------||  x1
A||-----------5-5--2---|-3-3--3-3--5-7------||
E||-3----3-3---------3-|----------------7-5-||

G||--------------------|--------------------||
D||--------------------|--------------------||  x2
A||-----------5-5--2---|-3-3--3-3--5-7------||
E||-3-3--3-3---------3-|----------------7-5-||

G||--------------------|--------------------|
D||--------------------|--------------------|
A||--------------------|--------------------|
E||-3-3--3-3--5-5--5-5-|-8------------------|

G||-----------------------|--------------------|
D||-----------------------|--------------------|
A||-10-12--10---------0-2-|-3---------6--------|
E||-----------0--2-3------|--------------------|

G||--------------------|--------------------|
D||------5-------------|--------------------|
A||----------------9---|-7-7--2\---3-5--3-2-|
E||-3-3----3--7-7------|--------------------|

G||--------------------|--------------------|
D||--------------------|--------------------|
A||--------------------|--------------------|
E||-3------------------|--------------------|


Verse 2

G||------------------------------|------------------------------|
D||------------------------------|------------------------------|
A||------------10--10-10--12-10\-|------------10--10------------|
E||-3-3/--(10)-------------------|-3-3/--(10)--------12--10-12\-|

G||------------------------------|----------|-----------------------|
D||------------------------------|----------|-----------------------|
A||------------10--10-10--12-10\-|-5-7--5-0-|-3-3-----3--3-3-----3--|
E||-3-3/--(10)-------------------|----------|------3h5-5------3h5-5-|

G||------------------------------|--------------------|--------------------|
D||------------------------------|--------------------|--------------------|
A||------------10--10-10--12-10\-|-5-5----5--7-5----5-|-3-3----3--3-3----3-|
E||-3-3/--(10)-------------------|------5---------5---|------3---------3---|

---

G||------------------------------|------------------------------|
D||------------------------------|------------------------------|
A||------------10--10-10--12-10\-|------------10--10-10---------|
E||-3-3/--(10)-------------------|-3-3/--(10)-------------------|

G||------------------------------|----------|-----------------------|
D||------------------------------|----------|-----------------------|
A||------------10--10-10--12-10\-|-5-7--5-0-|-3-3--------3-3-----3--|
E||-3-3/--(10)-------------------|----------|-----------------3h5-5-|

G||-------------------------|--------------------|-----------------------|
D||-------------------------|--------------------|-----------------------|
A||-----------------5/(10)\-|-5-5-------5-7--5-0-|-3-3-----3--3-3-----3--|
E||-3-3/-------3-3----------|--------------------|------3h5-5------3h5-5-|

G||--------------------||
D||--------------------||
A||--------------------||
E||-3-3--3-3--3-3--3-3-||


Chorus 2
                         
G||--------------------|--------------------||
D||--------------------|--------------------||  x3
A||-----------5-5--2---|-3-3--3-3--5-7------||
E||-3-3--3-3---------3-|----------------7-5-||

G||--------------------|--------------------|
D||--------------------|--------------------|
A||--------------------|--------------------|
E||-3-3--3-3--5-5--5-5-|-8------------------|

G||-----------------------|--------------------|
D||-----------------------|--------------------|
A||-10-12--10---------0-2-|-3---------6--------|
E||-----------0--2-3------|--------------------|

G||--------------------|--------------------|
D||------5-------------|--------------------|
A||----------------9---|-7-7--2\---3-5--3-2-|
E||-3-3----3--7-7------|--------------------|

G||--------------------|--------------------|
D||--------------------|--------------------|
A||--------------------|------------------2-|
E||-3------------------|-3-3--3-3--3-0--3---|


Outro

G||--------------------|--------------------|
D||--------------------|--------------------|
A||-3-3--3----3-2--3-7-|-5-5--5-5-----------|
E||--------3-----------|-----------7-7--5-5-|

G||--------------------|--------------------|
D||--------------------|--------------------|
A||------------------2-|------------------2-|
E||-3-3--3-3--3-0--3---|-3-3--3-3--3-0--3---|

---

G||--------------------|--------------------|
D||--------------------|--------------------|
A||-3-3--3----3-2--3-7-|-5-5--5-5-----------|
E||--------3-----------|-----------7-7--5-5-|

G||-----------------------|--------------------|
D||-----------------------|--------------------|
A||-----------10-10---9-9-|-7-7--7---------0-2-|
E||-3-3--3-3--------------|--------0--2-3------|

---

G||--------------------|--------------------|
D||--------------------|--------------------|
A||-3-3--3----3-2--3-7-|-5-5--5-5-----------|
E||--------3-----------|-----------7-7--5-5-|

G||--------------------|--------------------|
D||--------------------|--------------------|
A||------------------2-|-3-3--3----3-3--3-5-|
E||-3-3--3-3--3-0--3---|--------3-----------|

G||--------------------|--------------------|
D||--------------------|--------------------|
A||-3-3--3----3-2--3-7-|-5------------------|
E||--------3-----------|-----------7----5---|


Coda

G||--------------------|--------------------||
D||------5-------------|--------------------||  x4
A||----------------9---|-7-7-------3-5--3-2-||
E||-3---------7--------|--------------------||

G||--------------------|--------------------|---|
D||------5-------------|--------------------|---|
A||----------------9---|-7----2----3-5--3-2-|---|
E||-3---------7--------|--------------------|-3-|



-----------------------------------------------------------------------------
-----------------------------------------------------------------------------


3. Brick By Brick


Intro (guitar)

Verse

G||----------------------|--------------------||
D||----------------------|--------------------||
A||----------------------|--------------------||
E||-12/----3---------3-3-|-5-0----0--0-0------||

G||--------------------|--------------------||
D||--------------------|--------------------|| x2
A||--------------------|--------------------||
E||-0----3---------3-3-|-5-0----0--0-0------||

G||--------------------|--------------------|
D||--------------------|--------------------|
A||--------------------|--------------------|
E||-0----3---------3-3-|-3------------------|


Chorus

G||--------------------|--------------------|
D||--------------------|--------------------|
A||--------------------|--------------------|
E||-5----5-7--3----3-5-|-3-0----0----0--0-0-|

G||--------------------|--------------------|
D||--------------------|--------------------|
A||--------------------|----------------5-7-|
E||-5----5-7--3----3-5-|-3-0----0----7------|

---

G||--------------------|--------------------|
D||--------------------|--------------------|
A||--------------------|--------------------|
E||-5----5-7--3----3-5-|-3-0----0----0--0-0-|

G||--------------------|--------------------|
D||--------------------|--------------------|
A||--------------------|--------------------|
E||-5----5-7--3----3-5-|-3-0----0---------5-|

G||--------------------|--------------------|
D||--------------------|--------------------|
A||--------------------|------------------0-|
E||-3-0----0---------5-|-3-0----0-----------|

G||--------------------|-----------|
D||--------------------|-----------|
A||---14--13-12--11-10-|-9-8-------|
E||--------------------|-----------|


Solo

G||--------------------|--------------------||
D||--------------------|--------------------||
A||--------------------|--------------------||
E||-0----3---------3-3-|-5-0----0--0-0------||

G||--------------------|----------------------||
D||--------------------|----------------------|| x2
A||--------------------|----------------------||
E||-0----3---------3-3-|-5-0----0--0-0--12\---||

G||--------------------|--------------------||
D||--------------------|-5-----------5------|| 
A||----------------5-7-|---7----5--7----7\--||
E||-0----3------7------|--------------------||


Verse 2

G||--------------------|----------------------||
D||--------------------|----------------------|| 
A||--------------------|----------------------||
E||-0----3---------3-3-|-5-0----0--0-0--12\---||

G||--------------------|--------------------||
D||--------------------|-5-----------5------|| 
A||----------------5-7-|---7----5--7----7\--||
E||-0----3------7------|--------------------||

G||--------------------|--------------------||
D||--------------------|---5--6-7-----------|| 
A||----------------5-6-|-7---------5-6--7\--||
E||-0----3------7------|--------------------||

G||--------------------|--------------------|
D||--------------------|--------------------|
A||--------------------|--------------------|
E||-0----3-------------|--------------------|


Chorus 2

G||--------------------|--------------------|
D||--------------------|--------------------|
A||--------------------|--------------------|
E||-5----5-7--3----3-5-|-3-0----0----0--0-0-|

G||--------------------|--------------------|
D||--------------------|--------------------|
A||--------------------|----------------5-7-|
E||-5----5-7--3----3-5-|-3-0----0----7------|

---

G||--------------------|--------------------|
D||--------------------|--------------------|
A||--------------------|--------------------|
E||-5----5-7--3----3-5-|-3-0----0----0--0-0-|

G||--------------------|--------------------|
D||--------------------|--------------------|
A||--------------------|--------------------|
E||-5----5-7--3----3-5-|-3-0----0---------5-|

G||--------------------|--------------------|
D||--------------------|--------------------|
A||--------------------|------------------0-|
E||-3-0----0---------5-|-3-0----0-----------|

G||--------------------|-----------|
D||--------------------|-----------|
A||---14--13-12--11-10-|-9-8-------|
E||--------------------|-----------|


Verse 3 (half tempo)

G||--------------------|--------------------||
D||--------------------|--------------------||
A||--------------------|--------------------||
E||-0----3---------3-3-|-5-0----0--0-0------||

G||--------------------|----------------------||
D||--------------------|----------------------|| x2
A||--------------------|----------------------||
E||-0----3---------3-3-|-5-0----0--0-0--12\---||

G||--------------------|--------------------||
D||--------------------|-5-----------5------|| 
A||----------------5-7-|---7----5--7----7\--||
E||-0----3------7------|--------------------||

---

G||--------------------|----------------------||
D||--------------------|----------------------||
A||--------------------|----------------------||
E||-0----3---------3-3-|-5-0----0--0-0--12\---||

G||--------------------|--------------------||
D||--------------------|---5--6-7-----------|| 
A||----------------5-6-|-7---------5-6--7\--||
E||-0----3------7------|--------------------||
 
G||--------------------|--------------------||
D||--------------------|-5-----------5------|| 
A||----------------5-7-|---7----5--7----7\--||
E||-0----3------7------|--------------------||

G||--------------------|--------------------|
D||--------------------|--------------------|
A||--------------------|--------------------|
E||-0----3-------------|--------------------|


Chorus 3

G||--------------------|--------------------||
D||--------------------|--------------------||  x4
A||--------------------|--------------------||
E||-5----5-7--3----3-5-|-3-0----0----0--0-0-||

---

G||--------------------|--------------------|
D||--------------------|--------------------|
A||--------------------|----------------5---|
E||-5----5-7--3----3-5-|-3-0----0--5-7----7-|

G||--------------------|--------------------|
D||--------------------|--------------------|
A||--------------------|----------------5-7-|
E||-5----5-7--3----3-5-|-3-0----0--5-7------|

G||--------------------|--------------------|
D||--------------------|--------------------|
A||--------------------|----------------5---|
E||-5----5-7--3----3-5-|-3-0----0--5-7----7-|

G||--------------------|--------------------|
D||--------------------|--------------------|
A||--------------------|--------------------|
E||-5----5-7--3----3-5-|-3-0----0---------5-|

G||--------------------|--------------------|
D||--------------------|--------------------|
A||--------------------|------------------0-|
E||-3-0----0---------5-|-3-0----0-----------|

G||--------------------|-----------|
D||--------------------|-----------|
A||---14--13-12--11-10-|-9-8-------|
E||--------------------|-----------|

G||--------------------|
D||--------------------|
A||--------------------|
E||-0----3-------------|



-----------------------------------------------------------------------------
-----------------------------------------------------------------------------


4. The Hellcat Spangled Shalalala


Intro 

G||--------------------|
D||--------------------|
A||------------------2-|
E||--------------------|

G||--------------------|----------------------|
D||------------------4-|-6------6/8--4-6------|
A||---2-------2-4--6---|------------------4---|
E||--------4-----------|--------------------2-|

G||--------------------|----------------------|
D||------------------4-|-6------88--4-6-------|
A||-2---------2-4--6---|------------------4---|
E||--------4-----------|--------------------2-|

---

G||--------------------|----------------------|
D||------------------4-|-6------6/8--4-6------|
A||-2---------2-4--6---|------------------4---|
E||--------4-----------|--------------------2-|

G||--------------------|----------------------|
D||------------------4-|-6------88--4-6-------|
A||-2---------2-4--6---|------------------4---|
E||--------4-----------|--------------------2-|


Verse

G||--------------------|--------------------|
D||--------------------|--------------------|
A||-2--------2-------2-|-------------2------|
E||--------4----4-2----|-4------2--4----4-2-|

G||--------------------|--------------------||
D||--------------------|--------------------|| x4
A||-2--------2-------2-|-------------2--4-6-||
E||--------4----4-2----|-4------2--4--------||


Chorus

G||--------------------|--------------------||
D||--------------------|--------------------||  x3
A||-7----7----7----7-7-|---9----6--6-6--6-6-||
E||----------7--7------|--------------------||

G||--------------------|--------------------|
D||--------------------|--------------------|
A||-4------------------|--------------------|
E||--------------------|--------------------|


Verse 2

G||--------------------|--------------------|
D||--------------------|--------------------|
A||-2--------2-------2-|-------------2------|
E||--------4----4-2----|-4------2--4----4-2-|

G||--------------------|--------------------||
D||--------------------|--------------------|| x4
A||-2--------2-------2-|-------------2--4-6-||
E||--------4----4-2----|-4------2--4--------||


Chorus 2

G||--------------------|--------------------||
D||--------------------|--------------------||  x3
A||-7----7----7----7-7-|---9----6--6-6--6-6-||
E||----------7--7------|--------------------||

G||--------------------|-----------------------|
D||--------------------|-----------------------|
A||-4------------------|----------------4/(7)\-|
E||--------------------|-----------------------|

G||--------------------|--------------------|
D||--------------------|--------------------|
A||--------------------|-----------2------6-|
E||-2------------------|---0--2-4----4--2---|


Outro

G||--------------------|--------------------||
D||--------------------|--------------------||
A||-7----7----7-7----2-|---2--2----2--------||
E||----------7---------|----------4--4--2-4-||

G||--------------------|--------------------||
D||--------------------|--------------------||
A||-7----7----7-7----2-|---2--2----2--------||
E||----------7---------|----------4--4--2-4-||

G||--------------------|--------------------|
D||--------------------|--------------------|
A||-4----4----4----2-4-|---4--4--234-2------|
E||----------4--4------|----------------4-0-|

G||--------------------|--------------------|
D||--------------------|--------------------|
A||------------------9-|---9--9-------------|
E||-2----2/\-----------|-----------2----2---|

G||--------------------|--------------------|
D||--------------------|--------------------|
A||--------------------|--------2--4-6----2-|
E||-4----4---24-4----4-|---2--4---------4---|

G||--------------------|---------------------|
D||--------------------|---------------------|
A||-4----4---24-2------|---------------------|
E||------------------4-|---4--4-4--4-9--9-11-|

G||--------------------------|--------------------------||
D||--------------------------|--------------------------||
A||--------------------------|--------------------------||
E||-12----12----x12-12----13-|---13--13-13----13--13-13-||

G||--------------------|--------------------||
D||--------------------|--------------------||
A||--------------------|---2--7-6----2--4-6-||
E||-7----7----7-4--2-0-|--------------------||

G||--------------------|--------------------||
D||--------------------|--------------------||
A||--------------------|---2--7-6----2--4-6-||
E||-7----7----7-4--2-0-|--------------------||

G||--------------------|--------------------|
D||--------------------|--------------------|
A||-7----7---x7-9\-----|--------------------|
E||------------------2-|---2--2-0--2-7--9---|

---

G||--------------------|--------------------||
D||--------------------|--------------------|| x3
A||--------------------|---2--7-6----2--4-6-||
E||-7----7----7-4--2-0-|--------------------||

G||--------------------||
D||--------------------||
A||--------------------||
E||-7----7----7-4--2-0-||



-----------------------------------------------------------------------------
-----------------------------------------------------------------------------


5. Don't Sit Down 'Cause I've Moved Your Chair


Tuning: Drop D


Verse

(wait...)

G||--------------------||
D||--------------------||
A||--------------------||
D||------------------0-||

G||--------------------|--------------------||
D||--------------------|--------------------||  x11
A||--------------------|--------------------||
D||---0--2-0----0--2-0-|---0--2-0--3-2--1-0-||

G||--------------------|--------------------|
D||--------------------|--------------------|
A||--------------------|--------------------|
D||---0--2-0----0--2-0-|---0--2-0--3------3-|


Chorus

G||---------------------|---------------------|
D||---------------------|---------------------|
A||-------------------1-|---1--1-----1-1--1-5-|
D||---3--3-02--3-3--3---|--------23-----------|

G||--------------------|---------------------|
D||--------------------|---3--5-5/7\5-3------|
A||---5--5-3--5-5--5-3-|-5---------------5---|
D||--------------------|-------------------3-|

G||---------------------|---------------------|
D||---------------------|---------------------|
A||-------------------1-|---1--1-----1-1--1-5-|
D||---3--3-02--3-3--3---|--------23-----------|

G||--------------------|---------------------|
D||--------------------|---------------------|
A||---5--5-3--5-5--5-3-|-5-5--5-3--5---------|
D||--------------------|-------------------0-|


Verse 2

G||--------------------|--------------------||
D||--------------------|--------------------||
A||------8---------8---|------8----8-7--6---||
D||---0----0----0----0-|---0----0---------0-||

G||--------------------|--------------------||
D||--------------------|----------------6---|| 
A||------8---------8---|------8----7-8------||
D||---0----0----0----0-|---0----0---------0-||

---

G||--------------------|--------------------||
D||--------------------|--------------------||
A||------8---------8---|------8----8-7--6---||
D||---0----0----0----0-|---0----0---------0-||

G||--------------------|--------------------||
D||--------------------|-----------6--------|| 
A||------8---------8---|------8------7--8---||
D||---0----0----0----0-|---0----0---------0-||

---

G||--------------------|--------------------||
D||--------------------|--------------------||
A||------8---------8---|------8----8-7--6---||
D||---0----0----0----0-|---0----0---------0-||

G||--------------------|--------------------||
D||--------------------|----------------6---|| 
A||------8---------8---|------8----7-8------||
D||---0----0----0----0-|---0----0---------0-||

G||--------------------|--------------------||
D||--------------------|--------------------||
A||------8---------8---|------8----8-7--6---||
D||---0----0----0----0-|---0----0---------0-||

G||--------------------|--------------------||
D||--------------------|--------------------||
A||------8---------8---|--------------------||
D||---0----0----0----0-|---0----------------||


Chorus

G||---------------------|---------------------|
D||---------------------|---------------------|
A||-------------------1-|---1--1-----1-1--1-5-|
D||---3--3-02--3-3--3---|--------23-----------|

G||--------------------|---------------------|
D||--------------------|---3--5-5/7\5-3------|
A||---5--5-3--5-5--5-3-|-5---------------5---|
D||--------------------|-------------------3-|

G||---------------------|---------------------|
D||---------------------|---------------------|
A||-------------------1-|---1--1-----1-1--1-5-|
D||---3--3-02--3-3--3---|--------23-----------|

G||--------------------|---------------------|
D||--------3--5------3-|-5------3--5-3-------|
A||---5--5------3--5---|---3--5----------5---|
D||--------------------|-------------------3-|

---

G||---------------------|---------------------|
D||---------------------|---------------------|
A||-------------------1-|---1--1-----1-1--1-5-|
D||---3--3-02--3-3--3---|--------23-----------|

G||--------------------|---------------------|
D||--------------------|---3--5-5/7\5-3------|
A||---5--5-3--5-5--5-3-|-5---------------5---|
D||--------------------|-------------------3-|

G||---------------------|---------------------|
D||---------------------|---------------------|
A||-------------------1-|---1--1-1--1---------|
D||---3--3-02--3-3--3---|-------------------0-|


Outro

G||--------------------|--------------------|
D||--------------------|--------------------|
A||--------------------|--------------------|
D||---0--2-0----0--2-0-|---0--2-0----0--2-0-|

G||--------------------|--------------------|
D||--------------------|--------------------|
A||--------------------|--------------------|
D||---0--2-0----0--2-0-|---0--2-0--3-2--1-0-|

---

G||--------------------|--------------------|
D||--------------------|--------------------|
A||--------------------|--------------------|
D||---0--2-0----0--2-0-|---0--2-0----0--2-0-|

G||--------------------|--------------------|
D||--------------------|--------------------|
A||--------------------|--------------------|
D||---0--2-0----0--2-0-|---0--2-0--3-2--1---|



-----------------------------------------------------------------------------
-----------------------------------------------------------------------------


6. Library Pictures


Verse

G||---------------------------|--------------------------||
D||---------------------------|--------------------------||  x9
A||-9------9-12--11------9-12-|-11-----9-12--11-9--12-11-||
E||---------------------------|--------------------------||

G||---------------------------|--------------------------||
D||---------------------------|--------------------------||  
A||-9------9-12--11------9-12-|-11-----9-12--11----------||
E||---------------------------|--------------------------||


Solo

G||------------------------|----------------------||
D||------------------------|----------------------||  x7
A||------------------------|----------------------||
E||-2------2-5--4------2-5-|-4------2-5--4-2--5-4-||

G||------------------------|----------------------||
D||------------------------|----------------------||  
A||------------------------|----------------------||
E||-2------2-5--4------2-5-|-4------2-5--4----2---||

(half the time)

G||----------------------|-----------------------|
D||-16-------------------|-----------------------|
A||-----------------16---|-15---------12----14---|
E||----------------------|-----------------------|


Chorus (?)

G||---------------------|---------------------|
D||---------------------|---------------------|
A||---------------------|-9------9------------|
E||-5---5x-5----5--7\---|-------------0--2-5/-|

G||----------------------|--------------------|
D||----------------------|--------------------|
A||----------------------|-9------9-----------|
E||-8------8----8--10\---|-------------0--2-4-|

---

G||---------------------|---------------------|
D||---------------------|---------------------|
A||---------------------|-9------9------------|
E||-5------5----5--7\---|-------------0--2-5/-|

G||----------------------|----------------------|
D||----------------------|----------------------|
A||----------------------|-9------9-------------|
E||-8------8----8--10\---|-------------020--2-4-|

---

G||---------------------|---------------------|
D||---------------------|---------------------|
A||---------------------|-9------9------------|
E||-5------5----5--7\---|-------------0--2-5/-|

G||----------------------|----------------------|
D||----------------------|----------------------|
A||----------------------|-9------9-------------|
E||-8------8----8--10\---|-------------00---2-4-|

---
G||---------------------|---------------------|
D||---------------------|---------------------|
A||---------------------|-9------9------------|
E||-5------5----5--7\---|-------------0--2-5/-|

G||---------------------|----------------------|
D||---------------------|----------------------|
A||--------/9----7----3-|----------------------|
E||-8-------------------|-2--------------------|


Verse

G||------------------------|----------------------||
D||------------------------|----------------------||  x5
A||------------------------|----------------------||
E||-2------2-5--4------2-5-|-4------2-5--4-2--5-4-||

G||------------------------||
D||------------------------||
A||------------------------||
E||-2----------------------||

(wait) until "Of an 'ip-dip dogshit rock and roll"

G||------------------------|----------------------||
D||------------------------|----------------------||  x3
A||------------------------|----------------------||
E||-2------2-5--4------2-5-|-4------2-5--4-2--5-4-||

G||--------------------|--------------------|
D||--------------------|--------------------|
A||--------------------|--------------------|
E||-2-5--4-2--5-4--2-5-|-4-2--5-4-----------|



-----------------------------------------------------------------------------
-----------------------------------------------------------------------------


7. All My Own Stunts


Verse

G||--------------------||
D||--------------------||
A||--------------------||
E||-------------3--3-3-||

G||--------------------|--------------------||
D||--------------------|--------------------|| x3
A||--------------------|--------------------||
E||-3p2----2--2------2-|-2------2--2-3--3-3-||

G||--------------------|--------------------|
D||--------------------|----------------2-4-| 
A||--------------------|-------------4------|
E||-3p2----2--2------2-|-2------2--2--------|

--- (0:34)

G||--------------------|--------------------|
D||--------------------|--------------------| 
A||--------------------|---------------0h1--|
E||-3p2----2--2------2-|-2------2--2-3------|

G||--------------------|--------------------|
D||--------------------|--------------------|
A||--------------------|--------------------|
E||-3p2----2--2------2-|-2------2--2-3--3-3-|

G||--------------------|--------------------|
D||--------------------|--------------------| 
A||--------------------|---------------0h1--|
E||-3p2----2--2------2-|-2------2--2-3------|

G||--------------------|--------------------|
D||--------------------|--------------------|
A||--------------------|--------------------|
E||-3p2----2--2------2-|-2------2--2-3--3-3-|

--- (0:48)

G||--------------------|--------------------|
D||--------------------|--------------------|
A||--------------------|--------------------|
E||-3p2----2--2------2-|-2------2--2-3--3-3-|

G||--------------------|--------------------|
D||--------------------|--------------------| 
A||--------------------|---------------0h1--|
E||-3p2----2--2------2-|-2------2--2-3------|

G||--------------------|--------------------|
D||--------------------|--------------------|
A||--------------------|--------------------|
E||-3p2----2--2------2-|-2------2--2-3--3-3-|

G||--------------------|--------------------|
D||--------------------|----------------2-4-| 
A||--------------------|-------------4------|
E||-3p2----2--2------2-|-2------2--2--------|

--- (1:03)

G||--------------------|--------------------|
D||--------------------|--------------------| 
A||--------------------|---------------0h1--|
E||-3p2----2--2------2-|-2------2--2-3------|

G||--------------------|--------------------|
D||--------------------|--------------------|
A||--------------------|--------------------|
E||-3p2----2--2------2-|-2------2--2-3--3-3-|

G||--------------------|--------------------|
D||--------------------|--------------------| 
A||--------------------|---------------0h1--|
E||-3p2----2--2------2-|-2------2--2-3------|

G||--------------------|--------------------||
D||--------------------|--------------------||
A||--------------------|-9------7--5------4-||
E||-3p2----2--2------9-|--------------------||

Chorus

G||--------------------|--------------------|--------------------||
D||--------------------|--------------------|--------------------||
A||-----------4--------|-----------9--------|-7----9-------------||
E||-2------5-------5---|-0----0-----------9-|-----------5----5---||

G||--------------------|--------------------|---------------------||
D||--------------------|--------------------|---------------------||
A||-----------4--------|-----------9--------|-7----9\----4----4---||
E||-7------5-------5---|-0----0-----------9-|---------------------||

---

G||--------------------|--------------------|
D||--------------------|--------------------|
A||-5------4--5-4--5---|--------------------|
E||--------------------|-0----0----2------9-|

G||--------------------|--------------------|
D||--------------------|--------------------|
A||-7----9-------------|-----------4--------|
E||-----------5----5---|-7------5-------5---|

G||----------------------|----------------------|
D||----------------------|-7--------------------|
A||------------------7h9-|------9-----------7h9-|
E||-0----3----2-2--------|-----------2-2--------|

G||----------------------|--------------------|
D||----------------------|-7------------------|
A||-7----9-----------7h9-|------9---------7h9-|
E||-----------2-2--------|-----------2-2------|

G||--------------------|
D||--------------------|
A||-7------------------|
E||---3--3-3-----------|


Verse 2

G||--------------------||
D||--------------------||
A||--------------------||
E||-------------3--3-3-||

G||--------------------|--------------------|
D||--------------------|--------------------| 
A||--------------------|---------------0h1--|
E||-3p2----2--2------2-|-2------2--2-3------|

G||--------------------|--------------------|
D||--------------------|--------------------| 
A||--------------------|---------------0h1--|
E||-3p2----2--2------2-|-2------2--2-3------|

G||--------------------|--------------------|
D||--------------------|----------------2-4-| 
A||--------------------|-------------4------|
E||-3p2----2--2------2-|-2------2--2--------|

---

G||--------------------|--------------------|
D||--------------------|--------------------| 
A||--------------------|---------------0h1--|
E||-3p2----2--2------2-|-2------2--2-3------|

G||--------------------|--------------------|
D||--------------------|--------------------|
A||------------------4-|--------------------|
E||-3p2----2--2--------|-2------2--2-3--3-3-|

G||--------------------|--------------------|
D||--------------------|--------------------| 
A||------------------4-|---------------0h1--|
E||-3p2----2--2--------|-2------2--2-3------|

G||--------------------|--------------------|
D||--------------------|----------------2-4-| 
A||------------------4-|-------------4------|
E||-3p2----2--2--------|-2------2--2--------|

---

G||--------------------|--------------------|
D||--------------------|--------------------| 
A||------------------4-|---------------0h1--|
E||-3p2----2--2--------|-2------2--2-3------|

G||--------------------|--------------------|
D||--------------------|--------------------|
A||------------------4-|--------------------|
E||-3p2----2--2--------|-2------2--2-3--3-3-|

G||--------------------|--------------------|
D||--------------------|--------------------| 
A||------------------4-|---------------0h1--|
E||-3p2----2--2--------|-2------2--2-3------|

G||--------------------|--------------------||
D||--------------------|--------------------||
A||--------------------|-9------7--5------4-||
E||-3p2----2--2------9-|--------------------||


Chorus 2

G||--------------------|--------------------|--------------------||
D||--------------------|--------------------|--------------------||
A||-2---------4--------|-----------9--------|-7----9-------------||
E||--------5-------5---|-0----0-----------9-|-----------5----5---||

G||--------------------|--------------------|---------------------||
D||--------------------|--------------------|---------------------||
A||-----------4--------|-----------9--------|-7----9\----4----4---||
E||-7------5-------5---|-0----0-----------9-|---------------------||

---

G||--------------------|--------------------|
D||--------------------|--------------------|
A||-5------4--5-4--5---|--------------------|
E||--------------------|-0----0----2------9-|

G||--------------------|--------------------|---------|
D||--------------------|--------------------|---------|
A||-7----9-------------|-----------4--------|---------|
E||-----------5----5---|-7------5-------5---|-0----3--|

G||----------------------|----------------------|--------------------|
D||-------------7--------|----------------------|-8------------------|
A||--------7h9-------9---|------------------7h9-|------9-------------|
E||-2--------------------|-2----0----2----------|-----------2----0---|

---

G||--------------------|--------------------|-----------|
D||--------------------|--------------------|-----------|
A||--------------------|-5------------------|-----------|
E||-3------3--3----3---|------5----2------2-|-2-----2---|

G||--------------------|----------------------|-----------|
D||--------------------|----------------------|-7---------|
A||--------------------|-5----------------7h9-|-------9---|
E||-3------3--3----3---|------5----2----------|-----------|

G||--------------------|--------------------|-----------|
D||--------------------|--------------------|-----------|
A||--------------------|-5------------------|-----------|
E||-3------3--3----3---|------5----2------2-|-2-----2---|

G||--------------------|----------------------|-----------|
D||--------------------|----------------------|-----------|
A||--------------------|-5----------------7h9-|-7-----9---|
E||-3------3--3----3---|------5----2----------|-----------|

---

G||--------------------|--------------------|-----------|
D||--------------------|--------------------|-----------|
A||--------------------|-5------------------|-----------|
E||-3------3--3----3---|------5----2------2-|-2-----2---|

G||--------------------|----------------------|-----------|
D||--------------------|----------------------|-7---------|
A||--------------------|-5----------------7h9-|-------9---|
E||-3------3--3----3---|------5----2----------|-----------|

G||--------------------|--------------------|-----------|
D||--------------------|--------------------|-----------|
A||--------------------|-5------------------|-----------|
E||-3------3--3----3---|------5----2------2-|-2-----2---|

G||--------------------|--------------------|
D||--------------------|--------------------|
A||--------------------|-5------------------|
E||-3------3--3----3---|--------------------|

---

G||----------------------|----------------------|
D||-------------7--------|----------------------|
A||--------7h9-------9---|--------7h9--7----9---|
E||-2--------------------|-2--------------------|

G||----------------------|----------------------|
D||-------------7--------|----------------------|
A||--------7h9-------9---|--------7h9--7--------|
E||-2--------------------|-2-------------3--3-3-|



-----------------------------------------------------------------------------
-----------------------------------------------------------------------------


8. Reckless Serenade


Verse

G||--------------------|--------------------||
D||--------------------|--------------------||  x10
A||-5------5-------3---|--------------------||
E||-------------5----2-|-3------3----4----5-||


Chorus

G||--------------------|--------------------|
D||--------------------|--------------------|
A||--------------------|----------------5---|
E||-3------3----2--3-5-|-7------7----7----7-|

G||--------------------|--------------------|
D||--------------------|--------------------|
A||--------------------|--------------------|
E||-2------2----0--2---|-3------3----2--3-5-|

G||--------------------|--------------------|
D||--------------------|--------------------|
A||--------------------|-5------5----4--5---|
E||-3------3----2--3-5-|--------------------|

G||--------------------|--------------------|
D||--------------------|--------------------|
A||-7------7----5--7---|------------------4-|
E||------------------0-|-5------5----3--5---|


Verse 2

G||--------------------|--------------------||
D||--------------------|--------------------||  x8
A||-5------5-------3---|--------------------||
E||-------------5----2-|-3------3----4----5-||



Chorus 2

G||--------------------|--------------------|
D||--------------------|--------------------|
A||--------------------|----------------5---|
E||-3------3----2--3-5-|-7------7----7----7-|

G||--------------------|--------------------|
D||--------------------|--------------------|
A||--------------------|--------------------|
E||-2------2----0--2---|-3------3----2--3-5-|

G||--------------------|--------------------|
D||--------------------|--------------------|
A||--------------------|-5------5----4--5---|
E||-3------3----2--3-5-|--------------------|

G||--------------------|--------------------|
D||--------------------|--------------------|
A||-7------7----5--7---|------------------4-|
E||------------------0-|-5------5----3--5---|


Bridge

G||--------------------|--------------------|
D||--------------------|--------------------|
A||-2------2----0--2-4-|-5------5----4--5-0-|
E||--------------------|--------------------|

G||--------------------|--------------------|
D||--------------------|--------------------|
A||--------------------|--------------------|
E||-3------3----2--3-5-|-6------------------|

G||--------------------|--------------------|
D||--------------------|--------------------|
A||------------------7-|---9--7-5--7-9--7-5-|
E||-7-7--7-7--7-7--7---|--------------------|

G||--------------------|---------------------|
D||--------------------|---------------------|
A||------------------5-|----------------5\---|
E||-3-3--3-3--3-5------|---------------------|


Outro

G||--------------------|----------------------|
D||----------------7---|-9------9/11\9-7--5---|
A||-5------5--9--------|----------------------|
E||--------------------|----------------------|

G||--------------------|--------------------||
D||-9-9--9-9--9--------|--------------------||
A||-------------0----5-|--------------------||
E||--------------------|--------2--3-5--3-5-||

---

G||--------------------|---------------------|
D||--------------------|---------------------|
A||-5----5-------------|-2-2----2----2--5\---|
E||-----------2----2---|---------------------|

G||--------------------|--------------------||
D||--------------------|--------------------||  x3
A||------------------5-|--------------------||
E||-3-3--3-3--3-5------|--------------------||

G||--------------------|---------------------|
D||--------------------|---------------------|
A||-5----5-------------|-2-2----2----2--5\---|
E||-----------2----2---|---------------------|

G||--------------------|--------------------|--------------------|
D||--------------------|--------------------|--------------------|
A||--------------------|--------------------|-5------------------|
E||-0------------------|-3------------------|--------------------|



-----------------------------------------------------------------------------
-----------------------------------------------------------------------------


9. Piledriver Waltz


Intro

G||--------------------|--------------------||
D||--------------------|--------------------|| x2
A||-----------7--------|-7---------6-7------||
E||-0------7---------7-|--------7---------7-||

Verse

G||--------------------|--------------------|
D||--------------------|--------------------|
A||-----------7--------|-7------6--4--------|
E||-0------7---------7-|------------------4-|

G||--------------------|--------------------|
D||--------------------|--------------------|
A||-4---------4-4------|--------6--6--------|
E||--------4---------6-|-4----------------4-|

G||--------------------|--------------------||
D||--------------------|--------------------||  x2
A||--------6---------7-|-7------------------||
E||-4---------5--------|--------5--4----2---||

---

G||--------------------|--------------------|
D||--------------------|--------------------|
A||-----------7--------|-7---------6-7------|
E||-0------7---------7-|--------7---------7-|

G||--------------------|--------------------|
D||--------------------|--------------------|
A||-----------7--------|-7------------------|
E||-0------7---------7-|--------------------|


Chorus

G||---------------|---------------|----------------|---------------||
D||---------------|---------------|----------------|---------------||  x2
A||---------------|---------------|--------------7-|---------------||
E||-5----5----5---|-2----2----0---|-9----9----7h9--|-9----9----7---||

G||---------------|-----------------|---------------|------------------|
D||---------------|-----------------|---------------|------------------|
A||---------------|-----------5h7---|-7----7----7---|-11---11-----11---|
E||-5----5----5---|-7----7----------|---------------|-----------11---11|

G||------------------|------------------|-----------------|---------------|
D||------------------|------------------|-----------------|---------------|
A||-12----12----12---|-12----12----12---|-14----14----9---|---------------|
E||-----------12---12|-----------12---12|-----------------|-7-------------|


Verse 2

G||--------------------|--------------------|
D||--------------------|--------------------|
A||-----------7--------|-7------6--4--------|
E||-0------7---------7-|------------------4-|

G||--------------------|--------------------|
D||--------------------|--------------------|
A||-4---------4-4------|--------6--6--------|
E||--------4---------6-|-4----------------4-|

G||--------------------|--------------------|
D||--------------------|--------------------|
A||--------6---------7-|-7------------------|
E||-4---------5--------|--------5--4----2---|

---

G||--------------------|--------------------|
D||--------------------|--------------------|
A||-----------7--------|-7------6--4--------|
E||-0------7---------7-|------------------4-|

G||--------------------|--------------------|
D||--------------------|--------------------|
A||-4---------4-4----6-|--------6--6--------|
E||--------4-----------|-4----------------4-|

G||--------------------|--------------------|
D||--------------------|--------------------|
A||--------6---------7-|-7------------------|
E||-4---------5--------|--------5--4----2---|

---

G||--------------------|--------------------|
D||--------------------|--------------------|
A||-----------7--------|-6h7-------9p7------|
E||-0------7---------7-|--------7---------7-|

G||--------------------|--------------------|
D||--------------------|--------------------|
A||-----------7--------|-7------------------|
E||-0------7---------7-|--------------------|


Chorus 2

G||---------------|---------------|----------------|---------------||
D||---------------|---------------|----------------|---------------||  x2
A||---------------|---------------|--------------7-|---------------||
E||-5----5----5---|-2----2----0---|-9----9----7h9--|-9----9----7---||

G||---------------|-----------------|---------------|------------------|
D||---------------|-----------------|---------------|------------------|
A||---------------|-----------5h7---|-7----7----7---|-11---11-----11---|
E||-5----5----5---|-7----7----------|---------------|-----------11---11|

G||------------------|------------------|-----------------|----------------|
D||------------------|------------------|-----------------|----------------|
A||-12----12----12---|-12----12----12---|-14----14----9---|----------------|
E||-----------12---12|-----------12---12|-----------------|-7----7\----2---|

G||----------------|-------------------|
D||----------------|-------------------|
A||----------------|-12--12.12----11---|
E||-7----7\----2---|-------------------|


Outro

G||---------------|---------------|---------------|---------------|
D||---------------|---------------|---------------|---------------|
A||-7----7----7---|-7----7---97--6|-4----4----4---|-4----4----4-2-|
E||--------------7|---------------|--------------4|----------4----|

G||---------------|---------------|---------------|---------------|
D||---------------|---------------|---------------|---------------|
A||---------------|---------------|---------------|---------------|
E||-4----4----4--2|-4----4---24--7|-5----5----5--4|-5----4----2---|

---

G||---------------|---------------|---------------|---------------|
D||---------------|---------------|---------------|---------------|
A||---------------|-7----7---97--6|-4----4----4---|-4----4----4-2-|
E||-0---0-----0--7|---------------|--------------4|----------4----|

G||---------------|---------------|---------------|---------------||
D||---------------|---------------|---------------|---------------||  x2
A||---------------|---------------|---------------|---------------||
E||-4----4----4--2|-4----4---24--7|-5----5----5--4|-5----4----2---||


G||---------------|---------------|---------------|---------------|
D||---------------|---------------|---------------|---------------|
A||---------------|-7----7---97--6|-4----4----4---|-4----4----4-2-|
E||-0---0-----0--7|---------------|--------------4|----------4----|

G||---------------|---------------|---------------|
D||---------------|---------------|---------------|
A||---------------|---------------|---------------|
E||-4----4----4--2|-4----4---24--7|-5-------------|



-----------------------------------------------------------------------------
-----------------------------------------------------------------------------


10. Love Is A Laserquest


Intro

G||--------------------|--------------------||
D||--------------------|--------------------||
A||-2-2--2-2--2-2--2-2-|-2-2--2-2--2-2--2-2-||
E||--------------------|--------------------||


Verse

G||---------------------|----------------------------|
D||---------------------|----------------------------|
A||-2-2--2-2/--6-4--2/--|-11-11--11-11--11-11--13-14-|
E||---------------------|----------------------------|

G||---------------------|--------------------||
D||---------------------|--------------------||  x3
A||----------------7----|--------------------||
E||-9-9--9-9--9-9----9\-|-2-2--2-2--2-0--2-4-||

G||---------------------|----------------------------|
D||---------------------|----------------------------|
A||-2-2--2-2/--6-4--2/--|-11-11--11-11--11-11--13-14-|
E||---------------------|----------------------------|

G||---------------------|--------------------|--------------------|
D||---------------------|--------------------|--------------------|
A||----------------7----|--------------------|------------------6-|
E||-9-9--9-9--9-9----9\-|-2-2--2-2--2-2--2-2-|-2-2--2-0--2-4--2---|


Chorus

G||---------------------|---------------------|
D||---------------------|---------------------|
A||-7-7--7-7--7----7-11-|-9-9--9-9--9-11--9---|
E||-------------7-------|-------------------9-|

G||--------------------|--------------------|
D||--------------------|--------------------|
A||------------------6-|-7-7--7-7--7-7--7-6-|
E||-7-7--7-7--7-7--79--|--------------------|

G||-----------------------|--------------------|
D||-----------------------|--------------------|
A||-7-7--7-7--7-7/--11-11-|-9-9--9-9--7-7--7-7-|
E||-----------------------|--------------------|

G||--------------------|--------------------|
D||--------------------|--------------------|
A||-2-2--2-2--2-2--2-2-|-2-2--2-2--2-2--2-2-|
E||--------------------|--------------------|


Verse 2

G||---------------------|----------------------------|
D||---------------------|----------------------------|
A||-2-2--2-2/--6-4--2/--|-11-11--11-11--11-11--13-14-|
E||---------------------|----------------------------|

G||---------------------|--------------------|
D||---------------------|--------------------|
A||----------------7----|--------------------|
E||-9-9--9-9--9-9----9\-|-2-2--2-2--2-0--2-4-|

G||---------------------|----------------------------|
D||---------------------|----------------------------|
A||-2-2--2-2/--6-4--2/--|-11-11--11-11--11-11--13-14-|
E||---------------------|----------------------------|

G||---------------------|--------------------|--------------------|
D||---------------------|--------------------|--------------------|
A||----------------7----|--------------------|------------------6-|
E||-9-9--9-9--9-9----9\-|-2-2--2-2--2-2--2-2-|-2-2--2-0--2-4--2---|


Chorus 2

G||---------------------|---------------------|
D||---------------------|---------------------|
A||-7-7--7-7--7----7-11-|-9-9--9-9--9-11--9---|
E||-------------7-------|-------------------9-|

G||--------------------|--------------------|
D||--------------------|--------------------|
A||------------------6-|-7-7--7-7--7-7--7-6-|
E||-7-7--7-7--7-7--79--|--------------------|

G||-----------------------|--------------------|
D||-----------------------|--------------------|
A||-7-7--7-7--7-7/--11-11-|-9-9--9-9--7-7--7-7-|
E||-----------------------|--------------------|


Solo

G||--------------------|--------------------|
D||--------------------|--------------------|
A||--------------------|-11--------------14-|
E||-7--------------7/--|--------------------|

G||--------------------|--------------------|
D||--------------------|--------------------|
A||----------------7\--|--------------------|
E||-9------------------|-2---------------4/-|

G||--------------------|--------------------|
D||--------------------|--------------------|
A||--------------------|-11--------------14-|
E||-7--------------7/--|--------------------|

G||--------------------|--------------------|--------------------|
D||--------------------|--------------------|--------------------|
A||----------------7\--|--------------------|------------------6-|
E||-9------------------|-2------------------|-2------0--2-4--2---|


Chorus 2

G||---------------------|---------------------|
D||---------------------|---------------------|
A||-7-7--7-7--7----7-11-|-9-9--9-9--9-11--9---|
E||-------------7-------|-------------------9-|

G||--------------------|--------------------|
D||--------------------|--------------------|
A||------------------6-|-7-7--7-7--7-7--7-6-|
E||-7-7--7-7--7-7--79--|--------------------|

G||-----------------------|--------------------|
D||-----------------------|--------------------|
A||-7-7--7-7--7-7/--11-11-|-9-9--9-9--7-7--7-7-|
E||-----------------------|--------------------|

G||--------------------|--------------------|
D||--------------------|--------------------|
A||--------------------|------------------6-|
E||-4-4--4-4--4-4--4-4-|-4-4--4-0--2-4--2---|

G||-----------------------|--------------------|-----|
D||-----------------------|--------------------|-----|
A||-7-7--7-7--7-7/--11-11-|-9-9--9-9--7-7--7-7-|-----|
E||-----------------------|--------------------|--7--|



-----------------------------------------------------------------------------
-----------------------------------------------------------------------------


11. Suck It And See


Verse (guitar only)


Chorus

G||--------------------|---------------------|
D||--------------------|---------------------|
A||-----------7--------|-7---------7----7\---|
E||-0------7---------7-|--------7----7-------|

---

G||--------------------|--------------------|
D||--------------------|--------------------|
A||--------------------|--------------------|
E||-0------0--7------0-|-0-----/4----2----0-|

G||--------------------|--------------------|
D||--------------------|--------------------|
A||--------------------|-2-4----2-----------|
E||-5------5--4------4-|------4------4--2---|


G||--------------------|--------------------|
D||--------------------|--------------------|
A||--------------------|--------------------|
E||-0------0--7------0-|-0-----/4----2----0-|

G||--------------------|--------------------|
D||--------------------|--------------------|
A||--------------------|-2-4----2----4--6-7-|
E||-5------5--4------4-|------4-------------|

---

G||---------------------|--------------------|
D||---------------------|--------------------|
A||-9-----9-9--11-------|----------------6---|
E||----------------11/--|-7------7--7------7-|

G||--------------------|--------------------|
D||--------------------|--------------------|
A||--------7-----------|--------7-----------|
E||-9---------9--------|-9---------9-7--7\--|

G||-------------------|--------------------|
D||-------------------|--------------------|
A||----------------0--|-2------4-----------|
E||-5------5-5--2-----|-----------4----2---|

G||--------------------|--------------------|
D||--------------------|--------------------|
A||--------------------|--------------------|
E||-0------------------|--------------------|


Verse 2

G||--------------------|--------------------|
D||--------------------|--------------------|
A||-7------------------|-7-7----7-------7---|
E||--------7--0------7-|------7------7----4-|

G||--------------------|--------------------|
D||--------------------|--------------------|
A||-4---------2--------|-4-4----2-------2-4-|
E||--------4---------4-|------4------4------|

G||--------------------|--------------------|
D||--------------------|--------------------|
A||--------------------|--------------------|
E||-2------0--2------0-|-2-4--0-2----0--2-4-|

G||---------------------|--------------------|
D||---------------------|--------------------|
A||-2----------2--------|-2-4----2-------2-4-|
E||-------2h4---------4-|------4------4------|


G||--------------------|--------------------|
D||--------------------|--------------------|
A||-7------------------|-7-7------------7---|
E||--------7--0------7-|------7-0----7----4-|

G||----------------------|-----------------------|
D||--------11----9-------|-----------------------|
A||-4-----------------11-|-9------11p9--7--------|
E||----------------------|-----------------------|

G||----------------------|--------------------|
D||----------------------|--------------------|
A||-9------9--9---9/11\--|-2----4-------------|
E||----------------------|-----------4----2---|


Chorus 2

G||--------------------|--------------------|
D||--------------------|--------------------|
A||-----------7--------|-7-7-------6-7--9-7-|
E||-0------7---------7-|--------7-----------|

---

G||--------------------|--------------------|
D||--------------------|--------------------|
A||--------------------|--------------------|
E||-0------0--7------0-|-0-----/4----2----0-|

G||--------------------|--------------------|
D||--------------------|--------------------|
A||--------------------|-2-4----2-----------|
E||-5------5--4------4-|------4------4----2-|


G||--------------------|--------------------|
D||--------------------|--------------------|
A||--------------------|--------------------|
E||-0------0--7------0-|-0-0---/4----2----0-|

G||--------------------|--------------------|
D||--------------------|--------------------|
A||--------------------|-2-4----2----4--6-7-|
E||-5------5--4------4-|------4-------------|

---

G||---------------------|--------------------|
D||---------------------|--------------------|
A||-9-----9-9--11-------|----------------6---|
E||----------------11/--|-7------7--7------7-|

G||--------------------|--------------------|
D||--------------------|--------------------|
A||--------7-----------|--------7-----------|
E||-9---------9--------|-9---------9-7--7\--|

G||-------------------|--------------------|
D||-------------------|--------------------|
A||----------------0--|-2------4-----------|
E||-5------5-5--2-----|-----------4----2---|


Interlude

G||-----------------------|---------------------|
D||-----------------------|---------------------|
A||-4------11--12----11---|-9------11--7----9---|
E||-----------------------|---------------------|

G||---------------------|--------------------|
D||---------------------|--------------------|
A||-11------7--9----7---|-2-2--2-2--2-4--7---|
E||---------------------|--------------------|


Outro

G||--------------------|--------------------|
D||--------------------|--------------------|
A||--------------------|--------------------|
E||-5-5----5----4--5-7-|-5-5----5----4--5-4-|

G||--------------------|--------------------|
D||--------------------|--------------------|
A||--------------------|--------------------|
E||-2-2----2----0--2-4-|-2-2----2----0--2-4-|

G||--------------------|--------------------|
D||--------------------|--------------------|
A||-4------4----4--4-2-|------------------2-|
E||--------------------|-4------4----2--4---|

G||-----------------------|---------------------|
D||-----------------------|---------------------|
A||-4-4----4----6/7--\6-0-|---2--2----2-2--22-2-|
E||-----------------------|--------2------------|

---

G||--------------------|--------------------|
D||--------------------|--------------------|
A||--------------------|--------------------|
E||-5-5----5----4--5-7-|-5-5----5----4--5-4-|

G||--------------------|--------------------|
D||--------------------|--------------------|
A||--------------------|--------------------|
E||-2-2----2----0--2-4-|-2-2----2----0--2-4-|

G||--------------------|--------------------|
D||--------------------|--------------------|
A||--------------------|--------------------|
E||-5-5----5----4--5-7-|-5-5----5----4--5-4-|

G||----------------------|--------------------||
D||----------------------|--------------------||
A||----------------------|--------------------||
E||-7-7----7----7/--9\---|-5-5----5--5-4--2-4-||


Chorus 3

G||--------------------|--------------------|
D||--------------------|--------------------|
A||--------------------|--------------------|
E||-0------0--7------0-|-5-5--5-7----5----4-|

G||--------------------|--------------------|
D||--------------------|--------------------|
A||--------------------|--------------------|
E||-0------0--7------0-|-5-5--5-4----2----4-|

G||--------------------|--------------------|
D||--------------------|--------------------|
A||--------------------|--------------------|
E||-0------0--7------0-|-5-5--5-7----5----4-|

G||--------------------|--------------------||
D||--------------------|--------------------||  x3
A||--------------------|-----------2-4------||
E||-0------0--7------0-|-5-4--2-4-------4-2-||


G||--------------------|--------------------|
D||--------------------|--------------------|
A||--------------------|--------------------|
E||-0------0--7------0-|-5-5--5-7----5----4-|

G||--------------------|--------------------|
D||--------------------|--------------------|
A||--------------------|--------------------|
E||-0------0--7------0-|-5-5--5-4----2----4-|


G||--------------------|--------------------|--------------------|
D||--------------------|--------------------|--------------------|
A||--------------------|--------------------|--------------------|
E||-2------------------|-5---------7----4---|-0------------------|



-----------------------------------------------------------------------------
-----------------------------------------------------------------------------


12. That's Where You're Wrong


Intro

G||------------------------|
D||------------------------|
A||--------14--14-14--14---|
E||------------------------|

G||--------------------|--------------------||
D||--------------------|--------------------|| x2
A||-7-7--7-7--7------7-|---7--7-7--7--------||
E||-------------7--5---|-------------7--5-7-||


Verse

G||--------------------|--------------------|
D||--------------------|--------------------|
A||-7-7--7-7--7------7-|---7--7-7--7--------|
E||-------------7--5---|-------------7--5-7-|

G||--------------------|--------------------|
D||--------------------|--------------------|
A||-7-7--7-7--7------7-|---7--7-7--7/9--9-9-|
E||-------------7--5---|--------------------|


G||--------------------|--------------------|
D||--------------------|--------------------|
A||--------------------|--------------------|
E||-5-5--5-5--5-0--2-5-|---5--5-5--5-0--2-5-|

G||--------------------|--------------------||
D||--------------------|--------------------||  x2
A||--------------------|-------------2--4-5-||
E||-5-5--5-5--5-0--2-5-|---5--5-2--4--------||


Chorus

G||---------------------|--------------------|
D||---------------------|--------------------|
A||-7-7--7-7--11-9--7-9-|---7--7-7--7-9--9-9-|
E||---------------------|--------------------|

G||---------------------|-------------------------|
D||---------------------|-------------------------|
A||-7-7--7-7--11-9--7-9-|---7--7-14--14-14--14-14-|
E||---------------------|-------------------------|

G||--------------------|--------------------|
D||--------------------|--------------------|
A||--------------------|--------------------|
E||-5-5--5-5--5-0--2-5-|---5--5-5--5-0--2-5-|

G||--------------------|--------------------|
D||--------------------|--------------------|
A||--------------------|-------------2--4-5-|
E||-5-5--5-5--5-0--2-5-|---5--5-2--4--------|


Verse 2

G||--------------------|--------------------|
D||--------------------|--------------------|
A||-7-7--7-7--7------7-|---7--7-7--7--------|
E||-------------7--5---|-------------7--5-7-|

G||--------------------|--------------------|
D||--------------------|--------------------|
A||-7-7--7-7--7------7-|---7--7-7--7/9--9-9-|
E||-------------7--5---|--------------------|


G||--------------------|--------------------|
D||--------------------|--------------------|
A||--------------------|--------------------|
E||-5-5--5-5--5-0--2-5-|---5--5-5--5-0--2-5-|

G||--------------------|--------------------||
D||--------------------|--------------------||  x2
A||--------------------|-------------2--4-5-||
E||-5-5--5-5--5-0--2-5-|---5--5-2--4--------||


Chorus 2

G||---------------------|--------------------|
D||---------------------|--------------------|
A||-7-7--7-7--11-9--7-9-|---7--7-7--7-9--9-9-|
E||---------------------|--------------------|

G||---------------------|-------------------------|
D||---------------------|-------------------------|
A||-7-7--7-7--11-9--7-9-|---7--7-14--14-14--14-14-|
E||---------------------|-------------------------|

G||--------------------|--------------------|
D||--------------------|--------------------|
A||--------------------|--------------------|
E||-5-5--5-5--5-0--2-5-|---5--5-5--5-0--2-5-|

G||--------------------|--------------------||
D||--------------------|--------------------|| x2
A||--------------------|-------------2--4-5-||
E||-5-5--5-5--5-0--2-5-|---5--5-2--4--------||


Outro

G||--------------------|---------------------|
D||--------------------|---------------------|
A||--------------------|---------------------|
E||-0-----------7--5-0-|----------------7\---|

G||--------------------|---------------------|
D||--------------------|---------------------|
A||--------------------|---------------------|
E||-0-----------7--5-0-|----------------9\---|

G||--------------------|---------------------|
D||--------------------|---------------------|
A||--------------------|---------------------|
E||-5-----------0--2-5-|----------------7\---|

G||--------------------|---------------------||
D||--------------------|---------------------||  x2
A||--------------------|---------------------||
E||-0-----------0--2-5-|----------------9\---||

---

G||--------------------|--------------------|
D||--------------------|--------------------|
A||--------------------|--------------------|
E||-0--------------7-0-|--------------------|

G||--------------------|--------------------|
D||--------------------|--------------------|
A||--------------------|--------------------|
E||-0--------------7-0-|---------------9\---|

G||--------------------|--------------------|
D||--------------------|--------------------|
A||--------------------|--------------------|
E||-5--------------0-5-|--------------------|

G||--------------------|--------------------|
D||--------------------|--------------------|
A||--------------------|-------------2--4-5-|
E||-5--------------0-5-|--------2--4--------|


Chorus 3

G||---------------------|--------------------|
D||---------------------|--------------------|
A||-7-7--7-7--11-9--7-9-|---7--7-7--7-9--9-9-|
E||---------------------|--------------------|

G||---------------------|-------------------------|
D||---------------------|-------------------------|
A||-7-7--7-7--11-9--7-9-|---7--7-14--14-14--14-14-|
E||---------------------|-------------------------|

G||--------------------|--------------------|
D||--------------------|--------------------|
A||--------------------|--------------------|
E||-5-5--5-5--5-0--2-5-|---5--5-5--5-0--2-5-|

G||--------------------|--------------------||
D||--------------------|--------------------|| x5
A||--------------------|-------------2--4-5-||
E||-5-5--5-5--5-0--2-5-|---5--5-2--4--------||

Outro 2

G||--------------------|--------------------|
D||--------------------|--------------------|
A||-7------------------|------------------7-|
E||-------------7--5-0-|-------------5--7---|

G||--------------------|--------------------|
D||--------------------|--------------------|
A||--------------------|------------------7-|
E||-------------7--5-0-|-------------5--7---|

G||--------------------|--------------------|--------------------|
D||--------------------|--------------------|--------------------|
A||--------------------|------------------7-|--------------------|
E||-------------7--5-0-|-------------5--7---|-------------7--5-0-|


-----------------------------------------------------------------------------
-----------------------------------------------------------------------------
All tabs by Pedro Zappa

comments
print report bad tab
4 comments total. Showing first comments.
0 reply
arcticNoris wrote on August 8 2011, 04:49 pm

could you tab the blond-o-sonic bass please?

0 reply
Pedro Zappa wrote on August 8 2011, 07:53 pm

Can you give me a youtube link to the song?
I fear I never heard of it.

0 reply
Pedro Zappa wrote on August 8 2011, 07:57 pm

...And if you like you can check my separate tabs from Suck It And See and rate them as you feel is right.

I want to post or [tab]
guest
You may want to rate the tab now too:
select rating
Please do not post tabs as comments. Select "correction" instead!