Oops, an error
Loading. Please wait.

Teddy Picker Tab

ver1
ver1

Whole song

More versions @911Tabs.com
98,726 views 148 this week
8 commentsread comments
1 2 3 4 5
accurate
x 14
Autoscroll
+/-
esc
set tempo
stop
Difficulty
novice
Hey! There's an official Ultimate Guitar app which is ideal
for learning songs when you're away from computer. Get the app
WARNING: You are trying to view
                                    content from Ultimate-Guitar.com
                                    in an unauthorized application,
                                    which is prohibited.

                                    Please use an official Ultimate
                                    Guitar Tabs application for iPhone,
                                    iPad or Android to access legitimate
                                    chords, guitar, bass, and drum tabs
                                    from Ultimate-Guitar.com database.

                                    Type "ultimate guitar tabs" in Apple
                                    App Store's or Android Market's
                                    search to find the application.
Arctic Monkeys - Teddy Picker
From their latest album, Favourite Worst Nightmare.
Awesome song, and here's what I make out from it. This was pretty rushed, so excuse me 
some mistakes. I'm open for constructive critiscm.
Oh yeah, sorry if the format messes up somehow, I'm copying this from an exported ASCII 
from Guitar Pro.

Guitar 1 (Rhythm):

             Q    Q    E  Q    E     Q    Q    E  Q    E
E||-------|-----------------------|-----------------------|
B||-------|-----------------------|-----------------------|
G||-------|-----------------------|-----------------------|
D||-------|-----------------------|-----------------------|
A||-------|------------6--5-------|------------6--5-------|
E||-------|--5----5------------4--|--5----5------------4--|


  Q    Q    E  Q    E     Q    Q    E  Q    E     Q    Q    E  Q    E
-----------------------|-----------------------|-----------------------|
-----------------------|-----------------------|-----------------------|
-----------------------|-----------------------|-----------------------|
-----------------------|-----------------------|-----------------------|
------------6--5-------|------------6--5-------|-----------------------|
--5----5------------4--|--5----5------------4--|--0----0----4--0----0--|


  Q    Q    E  Q    E     Q    Q    E  Q    E     Q    Q    E  Q    E
-----------------------|-----------------------|-----------------------|-------|
-----------------------|-----------------------|-----------------------|-------|
-----------------------|-----------------------|-----------------------|-------|
-----------------------|-----------------------|-----------------------|-------|
--------------------3--|------------6--5-------|------------6--5-------|-------|
--0----0----4--0-------|--5----5------------4--|--5----5------------4--|-------|


                                                          Q    Q.      Q.
-------|-------|-------|-------|-------|-------|-------|----------------------|
-------|-------|-------|-------|-------|-------|-------|----------------------|
-------|-------|-------|-------|-------|-------|-------|--------------14------|
-------|-------|-------|-------|-------|-------|-------|--------------14------|
-------|-------|-------|-------|-------|-------|-------|--------------12------|
-------|-------|-------|-------|-------|-------|-------|----------------------|


                    Q    Q.      Q.                Q    Q.      Q.
---------|-------|----------------------|-------|----------------------|-------|
---------|-------|----------------------|-------|----------------------|-------|
---------|-------|--------------14------|-------|--------------14------|-------|
---------|-------|--------------14------|-------|--------------14------|-------|
---------|-------|--------------12------|-------|--------------12------|-------|
---------|-------|----------------------|-------|----------------------|-------|


           W                    W                    W
-------|--------------------|--------------------|--------------------|
-------|--------------------|--------------------|--------------------|
-------|--------------------|--------------------|--14----------------|
-------|--15----------------|--14----------------|--14----------------|
-------|--15----------------|--14----------------|--12----------------|
-------|--13----------------|--12----------------|--------------------|


   E   E   E   E   E   E   E   E      W                    W
----------------------------------|--------------------|--------------------|
----------------------------------|--------------------|--------------------|
--14--14--14--14--14--14--14--14--|--------------------|--16----------------|
--14--14--14--14--14--14--14--14--|--15----------------|--16----------------|
--12--12--12--12--12--12--12--12--|--15----------------|--14----------------|
----------------------------------|--13----------------|--------------------|


  E  E  E  E  E  E  E  E     E  E  E  E  E  E  E  E     Q.     E  E  E  Q
--------------------------|--------------------------|-----------------------|
--------------------------|--------------------------|-----------------------|
--8--8--8--8--8--8--8--8--|--8--8--8--8--8--8--8--8--|-----------------------|
--8--8--8--8--8--8--8--8--|--8--8--8--8--8--8--8--8--|-----------------------|
--6--6--6--6--6--6--6--6--|--6--6--6--6--6--6--6--6--|---------------6--5----|
--------------------------|--------------------------|--5------5--5----------|


  Q.     E  E  E  Q       Q.     E  E  E  Q       Q.     E  E  E  Q
-----------------------|-----------------------|-----------------------|
-----------------------|-----------------------|-----------------------|
-----------------------|-----------------------|-----------------------|
-----------------------|-----------------------|-----------------------|
---------------6--5----|---------------6--5----|---------------6--5----|
--5------5--5----------|--5------5--5----------|--5------5--5----------|


  Q    H         Q       Q    H         Q             Q    H         Q
----------------------|----------------------|-----|----------------------|
----------------------|----------------------|-----|----------------------|
----------------14----|----------------14----|-----|----------------14----|
----------------14----|----------------14----|-----|----------------14----|
----------------12----|----------------12----|-----|----------------12----|
----------------------|----------------------|-----|----------------------|


        Q    H         Q                   Q    Q    E  Q    E
-----|----------------------|-----|-----|-----------------------|
-----|----------------------|-----|-----|-----------------------|
-----|----------------14----|-----|-----|-----------------------|
-----|----------------14----|-----|-----|-----------------------|
-----|----------------12----|-----|-----|------------6--5-------|
-----|----------------------|-----|-----|--5----5------------4--|


  Q    Q    E  Q    E     Q    Q    E  Q    E     Q    Q    E  Q    E
-----------------------|-----------------------|-----------------------|
-----------------------|-----------------------|-----------------------|
-----------------------|-----------------------|-----------------------|
-----------------------|-----------------------|-----------------------|
------------6--5-------|------------6--5-------|------------6--5-------|
--5----5------------4--|--5----5------------4--|--5----5------------4--|


  Q    Q    E  Q    E     Q    Q    E  Q    E     Q    Q    E  Q    E
-----------------------|-----------------------|-----------------------|
-----------------------|-----------------------|-----------------------|
-----------------------|-----------------------|-----------------------|
-----------------------|-----------------------|-----------------------|
------------6--5-------|------------6--5-------|------------6--5-------|
--5----5------------4--|--5----5------------4--|--5----5------------4--|


  Q    Q    Q    Q       Q     H.               W
----------------------|---------------------|--------------------|
----------------------|---------------------|--------------------|
----------------------|---------------------|--------------------|
----------------------|-------15------------|--14----------------|
----------------------|-------15------------|--14----------------|
--5-------------------|-------13------------|--12----------------|


   W                    E   E   E   E   E   E   E   E      W
--------------------|----------------------------------|--------------------|
--------------------|----------------------------------|--------------------|
--14----------------|--14--14--14--14--14--14--14--14--|--------------------|
--14----------------|--14--14--14--14--14--14--14--14--|--15----------------|
--12----------------|--12--12--12--12--12--12--12--12--|--15----------------|
--------------------|----------------------------------|--13----------------|


-------------------|-------------------|-------------------|
-------------------|-------------------|-------------------|
-------------------|-------------------|-------------------|
-------------------|-------------------|-------------------|
-------------------|-------------------|-------------------|
-------------------|-------------------|-------------------|


  Q.     E  E  E  Q       Q.     E  E  E  Q       Q.     E  E  E  Q
-----------------------|-----------------------|-----------------------|
-----------------------|-----------------------|-----------------------|
-----------------------|-----------------------|-----------------------|
-----------------------|-----------------------|-----------------------|
---------------6--5----|---------------6--5----|---------------6--5----|
--5------5--5----------|--5------5--5----------|--5------5--5----------|


  Q.     E  E  E  Q       Q.     E  E  E  Q       Q.     E  E  E  Q
-----------------------|-----------------------|-----------------------|
-----------------------|-----------------------|-----------------------|
-----------------------|-----------------------|-----------------------|
-----------------------|-----------------------|-----------------------|
---------------6--5----|---------------6--5----|---------------6--5----|
--5------5--5----------|--5------5--5----------|--5------5--5----------|


  Q.     E  E  E  Q       Q.     E  E  E  Q       Q.     E  E  E  Q
-----------------------|-----------------------|-----------------------|
-----------------------|-----------------------|-----------------------|
-----------------------|-----------------------|-----------------------|
-----------------------|-----------------------|-----------------------|
---------------6--5----|---------------6--5----|---------------6--5----|
--5------5--5----------|--5------5--5----------|--5------5--5----------|


  Q.     E  E  E  Q       Q.     E  E  E  Q       Q.     E  E  E  Q
-----------------------|-----------------------|-----------------------|
-----------------------|-----------------------|-----------------------|
-----------------------|-----------------------|-----------------------|
-----------------------|-----------------------|-----------------------|
---------------6--5----|---------------6--5----|---------------6--5----|
--5------5--5----------|--5------5--5----------|--5------5--5----------|


  Q.     E  E  E  Q       Q.     E  E  E  Q       Q.     E  E  E  Q
-----------------------|-----------------------|-----------------------|
-----------------------|-----------------------|-----------------------|
-----------------------|-----------------------|-----------------------|
-----------------------|-----------------------|-----------------------|
-----------------------|------------------3----|---------------6--5----|
--0------0--0--4--0----|--0------0--0--4-------|--5------5--5----------|


  Q.     E  E  E  Q        W                    W
-----------------------|--------------------|--------------------|
-----------------------|--------------------|--------------------|
-----------------------|--------------------|--------------------|
-----------------------|--15----------------|--14----------------|
---------------6--5----|--15----------------|--14----------------|
--5------5--5----------|--13----------------|--12----------------|


   W                    E   E   E   E   E   E   E   E      W
--------------------|----------------------------------|--------------------|
--------------------|----------------------------------|--------------------|
--14----------------|--14--14--14--14--14--14--14--14--|--------------------|
--14----------------|--14--14--14--14--14--14--14--14--|--15----------------|
--12----------------|--12--12--12--12--12--12--12--12--|--15----------------|
--------------------|----------------------------------|--13----------------|


   W                    W                    E   E   E   E   E   E   E   E
--------------------|--------------------|----------------------------------|
--------------------|--------------------|----------------------------------|
--------------------|--14----------------|--14--14--14--14--14--14--14--14--|
--14----------------|--14----------------|--14--14--14--14--14--14--14--14--|
--14----------------|--12----------------|--12--12--12--12--12--12--12--12--|
--12----------------|--------------------|----------------------------------|


   Q    Q    Q    Q        Q    Q    Q    Q        Q    Q    Q    Q
-----------------------|-----------------------|-----------------------|
-----------------------|-----------------------|-----------------------|
-----------------------|-----------------------|--14-------------------|
--15-------------------|--14-------------------|--14-------------------|
--15-------------------|--14-------------------|--12-------------------|
--13-------------------|--12-------------------|-----------------------|


   E   E   E   E   E   E   E   E      Q    Q    Q    Q
----------------------------------|-----------------------|
----------------------------------|-----------------------|
--14--14--14--14--14--14--14--14--|-----------------------|
--14--14--14--14--14--14--14--14--|--15-------------------|
--12--12--12--12--12--12--12--12--|--15-------------------|
----------------------------------|--13-------------------|


   Q    Q    Q    Q        Q    Q    Q    Q       E  E  E  E  E  E  E  E
-----------------------|-----------------------|--------------------------|
-----------------------|-----------------------|--------------------------|
-----------------------|--14-------------------|--8--8--8--8--8--8--8--8--|
--14-------------------|--14-------------------|--8--8--8--8--8--8--8--8--|
--14-------------------|--12-------------------|--6--6--6--6--6--6--6--6--|
--12-------------------|-----------------------|--------------------------|


  Q    Q    E  Q    E     Q    Q    E  Q    E     Q    Q    E  Q    E
-----------------------|-----------------------|-----------------------|
-----------------------|-----------------------|-----------------------|
-----------------------|-----------------------|-----------------------|
-----------------------|-----------------------|-----------------------|
------------6--5-------|------------6--5-------|------------6--5-------|
--5----5------------4--|--5----5------------4--|--5----5------------4--|


  Q    Q    E  Q    E     Q    Q    E  Q    E     Q    Q    E  Q    E
-----------------------|-----------------------|-----------------------|
-----------------------|-----------------------|-----------------------|
-----------------------|-----------------------|-----------------------|
-----------------------|-----------------------|-----------------------|
------------6--5-------|-----------------------|-----------------------|
--5----5------------4--|--0----0----4--0----0--|--0----0----4--0----0--|


  Q    Q    Q    Q
----------------------|
----------------------|
----------------------|
--5-------------------|
--3---------7---------|
------------5---------|


Guitar 2 (Lead):
             Q    Q    E  Q    E     Q    Q    E  Q    E
E||-------|-----------------------|-----------------------|
B||-------|-----------------------|-----------------------|
G||-------|-----------------------|-----------------------|
D||-------|-----------------------|-----------------------|
A||-------|------------6--5-------|------------6--5-------|
E||-------|--5----5------------4--|--5----5------------4--|


  Q    Q    E  Q    E     Q    Q    E  Q    E     Q    Q    E  Q    E
-----------------------|-----------------------|-----------------------|
-----------------------|-----------------------|-----------------------|
-----------------------|-----------------------|-----------------------|
-----------------------|-----------------------|-----------------------|
------------6--5-------|------------6--5-------|-----------------------|
--5----5------------4--|--5----5------------4--|--0----0----4--0----0--|


  Q    Q    E  Q    E     Q    Q    E  Q    E     Q    Q    E  Q    E
-----------------------|-----------------------|-----------------------|
-----------------------|-----------------------|-----------------------|
-----------------------|-----------------------|-----------------------|
-----------------------|-----------------------|-----------------------|
--------------------3--|------------6--5-------|------------6--5-------|
--0----0----4--0-------|--5----5------------4--|--5----5------------4--|


  Q    Q    E  Q    E     Q    Q    E  Q    E     Q    Q    E  Q    E
-----------------------|-----------------------|-----------------------|
-----------------------|-----------------------|-----------------------|
-----------------------|-----------------------|-----------------------|
-----------------------|-----------------------|-----------------------|
------------6--5-------|------------6--5-------|------------6--5-------|
--5----5------------4--|--5----5------------4--|--5----5------------4--|


  Q    Q    E  Q    E     Q    Q    E  Q    E     Q    Q    E  Q    E
-----------------------|-----------------------|-----------------------|
-----------------------|-----------------------|-----------------------|
-----------------------|-----------------------|-----------------------|
-----------------------|-----------------------|-----------------------|
------------6--5-------|------------6--5-------|------------6--5-------|
--5----5------------4--|--5----5------------4--|--5----5------------4--|


  Q    Q    E  Q    E     Q    Q    E  Q    E     Q    Q    E  Q    E
-----------------------|-----------------------|-----------------------|
-----------------------|-----------------------|-----------------------|
-----------------------|-----------------------|-----------------------|
-----------------------|-----------------------|-----------------------|
------------6--5-------|------------6--5-------|------------6--5-------|
--5----5------------4--|--5----5------------4--|--5----5------------4--|


  Q    Q    E  Q    E     Q    Q    E  Q    E     Q    Q    E  Q    E
-----------------------|-----------------------|-----------------------|
-----------------------|-----------------------|-----------------------|
-----------------------|-----------------------|-----------------------|
-----------------------|-----------------------|-----------------------|
------------6--5-------|------------6--5-------|------------6--5-------|
--5----5------------4--|--5----5------------4--|--5----5------------4--|


  Q    Q    E  Q    E     Q    Q    E  Q    E     Q    Q    E  Q    E
-----------------------|-----------------------|-----------------------|
-----------------------|-----------------------|-----------------------|
-----------------------|-----------------------|-----------------------|
-----------------------|-----------------------|-----------------------|
------------6--5-------|------------6--5-------|------------6--5-------|
--5----5------------4--|--5----5------------4--|--5----5------------4--|


  Q    Q    E  Q    E      Q     Q     Q     Q        W
-----------------------|--------------------------|--------------------|
-----------------------|--------------13----15----|--12----------------|
-----------------------|--------14----------------|--------------------|
-----------------------|--15----------------------|--------------------|
------------6--5-------|--------------------------|--------------------|
--5----5------------4--|--------------------------|--------------------|


                                           Q     Q     Q     Q
-------------------|-------------------|--------------------------|
-------------------|-------------------|--------------13----15----|
-------------------|-------------------|--------14----------------|
-------------------|-------------------|--15----------------------|
-------------------|-------------------|--------------------------|
-------------------|-------------------|--------------------------|


   W                   E  E  E  E  E  E  E  E     E  E  E  E  E  E  E  E
--------------------|--------------------------|--------------------------|
--12----------------|--------------------------|--------------------------|
--------------------|--8--8--8--8--8--8--8--8--|--8--8--8--8--8--8--8--8--|
--------------------|--8--8--8--8--8--8--8--8--|--8--8--8--8--8--8--8--8--|
--------------------|--6--6--6--6--6--6--6--6--|--6--6--6--6--6--6--6--6--|
--------------------|--------------------------|--------------------------|


  Q.     E  E  E  Q       Q.     E  E  E  Q       Q.     E  E  E  Q
-----------------------|-----------------------|-----------------------|
-----------------------|-----------------------|-----------------------|
-----------------------|-----------------------|-----------------------|
-----------------------|-----------------------|-----------------------|
---------------6--5----|---------------6--5----|---------------6--5----|
--5------5--5----------|--5------5--5----------|--5------5--5----------|


  Q.     E  E  E  Q       Q.     E  E  E  Q       Q.     E  E  E  Q
-----------------------|-----------------------|-----------------------|
-----------------------|-----------------------|-----------------------|
-----------------------|-----------------------|-----------------------|
-----------------------|-----------------------|-----------------------|
---------------6--5----|---------------6--5----|---------------6--5----|
--5------5--5----------|--5------5--5----------|--5------5--5----------|


  Q.     E  E  E  Q       Q.     E  E  E  Q       Q.     E  E  E  Q
-----------------------|-----------------------|-----------------------|
-----------------------|-----------------------|-----------------------|
-----------------------|-----------------------|-----------------------|
-----------------------|-----------------------|-----------------------|
---------------6--5----|---------------6--5----|---------------6--5----|
--5------5--5----------|--5------5--5----------|--5------5--5----------|


  Q.     E  E  E  Q       Q.     E  E  E  Q       Q.     E  E  E  Q
-----------------------|-----------------------|-----------------------|
-----------------------|-----------------------|-----------------------|
-----------------------|-----------------------|-----------------------|
-----------------------|-----------------------|-----------------------|
---------------6--5----|---------------6--5----|---------------6--5----|
--5------5--5----------|--5------5--5----------|--5------5--5----------|


  Q    Q    E  Q    E     Q    Q    E  Q    E     Q    Q    E  Q    E
-----------------------|-----------------------|-----------------------|
-----------------------|-----------------------|-----------------------|
-----------------------|-----------------------|-----------------------|
-----------------------|-----------------------|-----------------------|
------------6--5-------|------------6--5-------|------------6--5-------|
--5----5------------4--|--5----5------------4--|--5----5------------4--|


  Q    Q    E  Q    E     Q    Q    E  Q    E     Q    Q    E  Q    E
-----------------------|-----------------------|-----------------------|
-----------------------|-----------------------|-----------------------|
-----------------------|-----------------------|-----------------------|
-----------------------|-----------------------|-----------------------|
------------6--5-------|------------6--5-------|------------6--5-------|
--5----5------------4--|--5----5------------4--|--5----5------------4--|


  Q    Q    E  Q    E     Q    Q    Q    Q       Q     Q     Q     Q
-----------------------|----------------------|-------------------------|
-----------------------|----------------------|-------------13----15----|
-----------------------|----------------------|-------14----------------|
-----------------------|----------------------|-------------------------|
------------6--5-------|----------------------|-------------------------|
--5----5------------4--|--5-------------------|-------------------------|


   W
--------------------|-------------------|-------------------|
--12----------------|-------------------|-------------------|
--------------------|-------------------|-------------------|
--------------------|-------------------|-------------------|
--------------------|-------------------|-------------------|
--------------------|-------------------|-------------------|


   Q     Q     Q     Q        Q     Q     Q     Q       W
--------------------------|--10----------------------|-------------------|
--------------13----15----|--------13----12----10----|-------------------|
--------14----------------|--------------------------|--9----------------|
--15----------------------|--------------------------|-------------------|
--------------------------|--------------------------|-------------------|
--------------------------|--------------------------|-------------------|


  W                   Q    E    Q     Q     E      Q     E   E   E   Q.
-------------------|---------------------------|----------------------------|
-------------------|-----------------------17--|--17----17--17--17--20------|
--L----------------|--9----9S--22----21--------|----------------------------|
-------------------|---------------------------|----------------------------|
-------------------|---------------------------|----------------------------|
-------------------|---------------------------|----------------------------|


  Q    E    Q     Q     E      Q     E   E   E   Q.
---------------------------|----------------------------|
-----------------------17--|--17----17--17--17--20------|
--9----9S--22----21--------|----------------------------|
---------------------------|----------------------------|
---------------------------|----------------------------|
---------------------------|----------------------------|


   E   E   E   Q     Q.          E   E   E   E   E   Q.
----------17-----------------|-------------------------------|
--17--17------18----17~------|--17--17--17--17--17--20~------|
-----------------------------|-------------------------------|
-----------------------------|-------------------------------|
-----------------------------|-------------------------------|
-----------------------------|-------------------------------|


   E   E   E   Q     E   E   E      E    E   E   E    E   E    E   E
----------17--------------------|-------------------------------------|
--17--17------18----17--15--15--|--15S--13--13--13S--12--12S--10--10--|
--------------------------------|-------------------------------------|
--------------------------------|-------------------------------------|
--------------------------------|-------------------------------------|
--------------------------------|-------------------------------------|


   Q    E   E    E    E    Q         Q    E   E    E    E    Q
---------------------------------|---------------------------------|
-----------20b--20b--20b--20b----|-----------20b--20b--20b--20b----|
--14-----------------------------|--14-----------------------------|
--14-----------------------------|--14-----------------------------|
--12-----------------------------|--12-----------------------------|
---------------------------------|---------------------------------|


   Q    E   E    E    E    Q         Q    E   E    E    E    Q
---------------------------------|---------------------------------|
-----------20b--20b--20b--20b----|-----------20b--20b--20b--20b----|
--14-----------------------------|--14-----------------------------|
--14-----------------------------|--14-----------------------------|
--12-----------------------------|--12-----------------------------|
---------------------------------|---------------------------------|


   Q.        E    Q.       E      Q.      E   Q     Q
------------------------------|--------------------------|
--20b~------20b--20~------20--|--18------18--17----------|
------------------------------|--------------------17----|
------------------------------|--------------------------|
------------------------------|--------------------------|
------------------------------|--------------------------|


                            PH
   E   Q      E   E   E     Q        W
---------------------------------|---------------------|
---------------------------------|--22~----------------|
--14--14~----14--14--14--<>14----|---------------------|
---------------------------------|---------------------|
---------------------------------|---------------------|
---------------------------------|---------------------|


   Q     Q     Q     Q        W
--------------------------|--------------------|-------------------|
--------------13----15----|--12----------------|-------------------|
--------14----------------|--------------------|-------------------|
--15----------------------|--------------------|-------------------|
--------------------------|--------------------|-------------------|
--------------------------|--------------------|-------------------|


                       Q     Q     Q     Q        W
-------------------|--------------------------|--------------------|
-------------------|--------------13----15----|--12----------------|
-------------------|--------14----------------|--------------------|
-------------------|--15----------------------|--------------------|
-------------------|--------------------------|--------------------|
-------------------|--------------------------|--------------------|


                                           Q    Q    Q    Q
-------------------|-------------------|-----------------------|
-------------------|-------------------|-----------------------|
-------------------|-------------------|-----------------------|
-------------------|-------------------|--15-------------------|
-------------------|-------------------|--15-------------------|
-------------------|-------------------|--13-------------------|


   Q    Q    Q    Q        Q    Q    Q    Q
-----------------------|-----------------------|
-----------------------|-----------------------|
-----------------------|--14-------------------|
--14-------------------|--14-------------------|
--14-------------------|--12-------------------|
--12-------------------|-----------------------|


   E   E   E   E   E   E   E   E      Q    Q    Q    Q
----------------------------------|-----------------------|
----------------------------------|-----------------------|
--14--14--14--14--14--14--14--14--|-----------------------|
--14--14--14--14--14--14--14--14--|--15-------------------|
--12--12--12--12--12--12--12--12--|--15-------------------|
----------------------------------|--13-------------------|


   Q    Q    Q    Q        Q    Q    Q    Q       E  E  E  E  E  E  E  E
-----------------------|-----------------------|--------------------------|
-----------------------|-----------------------|--------------------------|
-----------------------|--14-------------------|--8--8--8--8--8--8--8--8--|
--14-------------------|--14-------------------|--8--8--8--8--8--8--8--8--|
--14-------------------|--12-------------------|--6--6--6--6--6--6--6--6--|
--12-------------------|-----------------------|--------------------------|


  Q    Q    E  Q    E     Q    Q    E  Q    E     Q    Q    E  Q    E
-----------------------|-----------------------|-----------------------|
-----------------------|-----------------------|-----------------------|
-----------------------|-----------------------|-----------------------|
-----------------------|-----------------------|-----------------------|
------------6--5-------|------------6--5-------|------------6--5-------|
--5----5------------4--|--5----5------------4--|--5----5------------4--|


  Q    Q    E  Q    E     Q    Q    E  Q    E     Q    Q    E  Q    E
-----------------------|-----------------------|-----------------------|
-----------------------|-----------------------|-----------------------|
-----------------------|-----------------------|-----------------------|
-----------------------|-----------------------|-----------------------|
------------6--5-------|-----------------------|-----------------------|
--5----5------------4--|--0----0----4--0----0--|--0----0----4--0----0--|


  Q    Q    Q    Q
----------------------|
----------------------|
----------------------|
--5-------------------|
--3---------7---------|
------------5---------|


Duration Legend
---------------
W - whole
H - half
Q - quarter
E - 8th
S - 16th
T - 32nd
X - 64th
. - note dotted
|-n-|  - n-tuplets


Tablature Legend
----------------
L - tied note
x - dead note
g - grace note
(n) - ghost note
> - accentuded note
NH - natural harmonic
AH - artificial harmonic
TH - tapped harmonic
SH - semi harmonic
PH - pitch harmonic
h - hammer on
p - pull off
b - bend
br - bendRelease
pb - preBend
pbr - preBendRelease
brb - bendReleaseBend
\n/ - tremolo bar dip
\n - tremolo bar dive
-/n - tremolo bar Release up
/n\ - tremolo bar inverted dip
/n - tremolo bar return
-\n - tremolo bar Release down
S - shift slide
s - legato slide
/ -  slide into from below or out of upwards
\ -  slide into from above or out of downwards
~ - vibrato
W - wide vibrato
tr - trill
TP - tremolo picking
T - tapping
S - slap
P - pop
< - fade in
^ - brush up
v - brush down
comments
print report bad tab
8 comments total. Showing first comments. show 1 bad comment
0 reply
XxShredderxX wrote on May 1 2007, 02:46 am

Dude, i just couldnt even follow the tab. its like im reading another song. granted, your formatting was off, but i still cant make out which parts will go where because they dont even sound right. however, it looks like you put alot of work into it. try to fix it and ill give you 5 stars

0 reply
Steve The Plank wrote on May 7 2007, 06:57 pm

This tab was completely correct, good job.

I want to post or [tab]
guest
You may want to rate the tab now too:
select rating
Please do not post tabs as comments. Select "correction" instead!