Oops, an error
Loading. Please wait.

The Jewellers Hands Bass Tab

ver3
ver3

Whole song

Interactive

More versions @911Tabs.com
1,972 views 36 this week
no commentswrite comment
1 2 3 4 5
excellent!
x 3
Autoscroll
+/-
esc
set tempo
stop
Contributor
WARNING: You are trying to view
                                    content from Ultimate-Guitar.com
                                    in an unauthorized application,
                                    which is prohibited.

                                    Please use an official Ultimate
                                    Guitar Tabs application for iPhone,
                                    iPad or Android to access legitimate
                                    chords, guitar, bass, and drum tabs
                                    from Ultimate-Guitar.com database.

                                    Type "ultimate guitar tabs" in Apple
                                    App Store's or Android Market's
                                    search to find the application.
Artist: Arctic Monkeys

Album: Humbug



All tabs by Pedro Zappa
-----------------------------------------------------------------------------
-----------------------------------------------------------------------------


10. The Jeweller's Hands

Intro

G||--------------------||
D||--------------------||
A||-----------1----2---||
E||-4----1-------------||
    i    i    i    i  
G||--------------------|--------------------||  x3
D||------1---------1-5-|-3-3----------------||
A||-3-----3--33--------|------5-5--3-3--33-x||
E||--------------------|--------------------||
    i    i    i    i     i    i    i    i
G||--------------------|--------------------|| 
D||------1---------1-5-|--------------------||
A||-3-----3--33--------|------5-5--3-3--33-x||
E||--------------------|-1-1----------------||
    i    i    i    i     i    i    i    i

Verse 1

G||--------------------|--------------------||  x3
D||------1---------1-5-|-3-3----------------||
A||-3-----3--33--------|------5-5--3-3--33-x||
E||--------------------|--------------------||
    i    i    i    i     i    i    i    i
G||--------------------|--------------------|| 
D||------1---------1-5-|--------------------||
A||-3-----3--33--------|------5-5--3-3--33-x||
E||--------------------|-1-1----------------||
    i    i    i    i     i    i    i    i
G||--------------------|--------------------||  x3
D||------1---------1-5-|-3-3----------------||
A||-3-----3--33--------|------5-5--3-3--33-x||
E||--------------------|--------------------||
    i    i    i    i     i    i    i    i
G||--------------------|--------------------|| 
D||------1---------1-5-|--------------------||
A||-3-----3--33--------|------5-5--3-3--3-3-||
E||--------------------|-1-1----------------||
    i    i    i    i     i    i    i    i

Chorus 1

G||--------------------|--------------------|
D||--------------------|--------------------|
A||--------66---5----1-|-3------33---5----6-|
E||-4------------------|--------------------|
    i    i    i    i     i    i    i    i
G||--------------------|--------------------|
D||--------------------|--------------------|
A||--------------------|-3-5--6-5--3-1--3-6-|
E||-3------33---1----3-|--------------------|
    i    i    i    i     i    i    i    i
G||--------------------|--------------------|
D||--------------------|--------------------|
A||--------66---5----1-|--------------------|
E||-4------------------|-3------33---1----3-|
    i    i    i    i     i    i    i    i
G||--------------------|--------------------|
D||--------------------|--------------------|
A||--------------------|-3------33---5----6-|
E||-3------33---1----3-|--------------------|
    i    i    i    i     i    i    i    i
G||--------------------|--------------------|
D||-----------5--------|--------------------|
A||---6--5-6----6--5-6-|-3------33---5----6-|
E||-4------------------|--------------------|
    i    i    i    i     i    i    i    i
G||--------------------|--------------------|
D||--------------------|--------------------|
A||--------------------|-3-5--6-5--3-1--3-6-|
E||-3------33---1----3-|--------------------|
    i    i    i    i     i    i    i    i
G||--------------------|--------------------|
D||--------------------|--------------------|
A||--------66---5----1-|--------------------|
E||-4------------------|-3----3-------------|
    i    i    i    i     i    i    i    i

Verse 2

(wait)

G||--------------------||
D||-----------1-----1--||
A||-------------31-----||
E||----------------3---||
    i    i    i    i  
G||--------------------|--------------------||  x3
D||------1---------1-5-|-3-3----------------||
A||-3-----3--33--------|------5-5--3-3--33-x||
E||--------------------|--------------------||
    i    i    i    i     i    i    i    i
G||--------------------|--------------------|| 
D||------1---------1-5-|--------------------||
A||-3-----3--33--------|------5-5--3-3--33-x||
E||--------------------|-1-1----------------||
    i    i    i    i     i    i    i    i

Chorus 2

G||--------------------|--------------------|
D||--------------------|--------------------|
A||--------66---5----1-|-3------33---5----6-|
E||-4------------------|--------------------|
    i    i    i    i     i    i    i    i
G||--------------------|--------------------|
D||--------------------|--------------------|
A||--------------------|-3-5--6-5--3-1--3-6-|
E||-3------33---1----3-|--------------------|
    i    i    i    i     i    i    i    i
G||--------------------|--------------------|
D||--------------------|--------------------|
A||--------66---5----1-|--------------------|
E||-4------------------|-3------33---1----3-|
    i    i    i    i     i    i    i    i
G||--------------------|--------------------|
D||--------------------|--------------------|
A||--------------------|-3------33---5----6-|
E||-3------33---1----3-|--------------------|
    i    i    i    i     i    i    i    i
G||--------------------|--------------------|
D||-----------5--------|--------------------|
A||---6--5-6----6--5-6-|-3------33---5----6-|
E||-4------------------|--------------------|
    i    i    i    i     i    i    i    i
G||--------------------|--------------------|
D||--------------------|--------------------|
A||--------------------|-3-5--6-5--3-1--3-6-|
E||-3------33---1----3-|--------------------|
    i    i    i    i     i    i    i    i
G||--------------------|--------------------|--------------------|
D||--------------------|--------------------|--------------------|
A||--------66---5----1-|--------------------|--------------------|
E||-4------------------|-3----3----3----3---|-3----3-------------|
    i    i    i    i     i    i    i    i     i    i    i    i

(wait)

Outro

G||--------------------||
D||-----------1-----1--||
A||-------------31-----||
E||----------------3---||
    i    i    i    i  
G||--------------------|--------------------|
D||--------------565---|--------------------|
A||-3-3--3-3--6-6---653|--------------------|
E||--------------------|-4-4--4-4--7-7--7-7-|
    i    i    i    i     i    i    i    i
G||----------------------|--------------------||  x2
D||----------------------|--------------------||
A||-----------8-8--8-10.8|-3-3--3-3-----------||
E||-3-3--3-3-------------|-----------3-3--3-3-|| 
    i    i    i    i       i    i    i    i

G||--------------------|--------------------|
D||--------------565---|--------------------|
A||-3-3--3-3--6-6---653|--------------------|
E||--------------------|-4-4--4-4--3-3--3-3-|
    i    i    i    i     i    i    i    i
G||--------------------|--------------------||  x2
D||--------------------|--------------------||
A||-----------5-5--5-5-|-3-3--3-3-----------||
E||-4-4--4-4-----------|-----------3-3--3-3-|| 
    i    i    i    i     i    i    i    i

G||--------------------|--------------------|
D||--------------565---|--------------------|
A||-3-3--3-3--6-6---653|--------------------|
E||--------------------|-4-4--4-4--3-3--3-3-|
    i    i    i    i     i    i    i    i
G||--------------------|--------------------||
D||--------------------|--------------------||
A||--------------------|-3-3--3-3-----------||
E||-4-4--4-4--3-3--3-3-|-----------3-3--3-3-|| 
    i    i    i    i     i    i    i    i

G||--------------------|--------------------|
D||--------------565---|-6-6--6-6--9-9--9-9-|
A||-3-3--3-3--6-6---653|--------------------|
E||--------------------|--------------------|
    i    i    i    i     i    i    i    i
G||--------------------|--------------------||
D||-5-5--5-5--3-3--3-3-|--------------------||
A||--------------------|-3-3--3-3-----------||
E||--------------------|-----------3-3--3-3-|| 
    i    i    i    i     i    i    i    i

G||--------------------|--------------------|
D||--------------565---|--------------------|
A||-3-3--3-3--6-6---653|--------------------|
E||--------------------|-4-4--4-4--3-3--3-3-|
    i    i    i    i     i    i    i    i
G||--------------------|--------------------||
D||--------------------|--------------------||
A||-----------5-5--5-5-|-3-3--3-3-----------||
E||-4-4--4-4-----------|-----------3-3--3-3-|| 
    i    i    i    i     i    i    i    i

G||--------------------|--------------------|
D||--------------565---|--------------------|
A||-3-3--3-3--6-6---653|--------------------|
E||--------------------|-4-4--4-4--3-3--3-3-|
    i    i    i    i     i    i    i    i
G||--------------------|--------------------||  x2
D||--------------------|--------------------||
A||--------------------|-3-3--3-3-----------||
E||-4-4--4-4--3-3--3-3-|-----------3-3--3-3-|| 
    i    i    i    i     i    i    i    i

G||--------------------|--------------------|
D||--------------565---|--------------------|
A||-3-3--3-3--6-6---653|--------------------|
E||--------------------|-4-4--4-4--7-7--7-7-|
    i    i    i    i     i    i    i    i
G||----------------------|--------------------||
D||----------------------|--------------------||
A||-----------8-8--8-10.8|-3-3--3-3-----------||
E||-3-3--3-3-------------|-----------3-3--3-3-|| 
    i    i    i    i       i    i    i    i

G||--------------------|--------------------|
D||--------------565---|--------------------|
A||-3-3--3-3--6-6---653|--------------------|
E||--------------------|-4-4--4-4--3-3--3-3-|
    i    i    i    i     i    i    i    i
G||--------------------|--------------------||  x2
D||--------------------|--------------------||
A||-----------5-5--5-5-|-3-3--3-3-----------||    fade out
E||-4-4--4-4-----------|-----------3-3--3-3-|| 
    i    i    i    i     i    i    i    i


Tab by Pedro Zappa
-----------------------------------------------------------------------------
-----------------------------------------------------------------------------
comments
We did not receive enough feedback on this tab! Please rate:
print report bad tab
1 2 3 4 5
I want to post or [tab]
guest
You may want to rate the tab now too:
select rating
Please do not post tabs as comments. Select "correction" instead!