Oops, an error
Loading. Please wait.

Too Much To Ask Tab

ver4
ver4

Whole song

More versions @911Tabs.com
6,702 views 15 this week
no commentswrite comment
1 2 3 4 5
excellent!
x 3
Autoscroll
+/-
esc
set tempo
stop
WARNING: You are trying to view
                                    content from Ultimate-Guitar.com
                                    in an unauthorized application,
                                    which is prohibited.

                                    Please use an official Ultimate
                                    Guitar Tabs application for iPhone,
                                    iPad or Android to access legitimate
                                    chords, guitar, bass, and drum tabs
                                    from Ultimate-Guitar.com database.

                                    Type "ultimate guitar tabs" in Apple
                                    App Store's or Android Market's
                                    search to find the application.
-------------------------------------------------------------------------------
                             TOO MUCH TO ASK - Arctic Monkeys
-------------------------------------------------------------------------------
Tabbed by: Chris Hellon
Email: mellon_c@hotmail.com

Tuning: EADGBe


Intro:
       
e|-------------------------1----8------------------------------------|
B|-------------------------3----10-----------------------------------|  
G|------0-------------0----2----9------------------------------------|   x2
D|-----2--2/5-4\1---1----0-------------------------------------------|
A|----2-----------2-----------0--------------------------------------|
E|---0---------------------------------------------------------------|


Verse 1:

      Em                       B7
The smiles as she walked in the room

      Dm                          Am
have all turned into frowns am I too quick to assume

         Em                    B7
that the love is no longer in bloom

       Dm                          Am
The tantrums and the tears play a very different tunes to what they

 Em                B7
   did before Their heads red raw

         Dm                             Am
And the ending doesn't sound like the happiest around When you

 Em               B7                      Dm
sobbed before it felt much more like the product of the squabble

 B7
Now there's reason for it to be something more


Chorus:

  Am
And there would be

                                       G
Oh its uncertain whether the curtain has shut for good She

                                                           Am
said "see if it's still raining but I'm not dressed for it, and
                                                          B7  
if you loved me" And I interrupt to receive the scowl and stare

But still decided to stop her there.


Bridge:
e|---------------------------------1----8------------------------------------|
B|---------------------------------3----10-----------------------------------|
G|--------------0-------------0----2----9------------------------------------|
D|--5-5-4-4----2--2/5-4\1---1----0-------------------------------------------|
A|------------2-----------2-----------0--------------------------------------|
E|-----------0---------------------------------------------------------------|

Verse 2:

This Section Played Over Chords:

e|-------7--------------------------7---------10-----------------------------|
B|-----8---8-10-8-8---------------8---8-10/12--------------------------------|
G|--9--------------9-----------8---------------------------------------------|
D|---------------------------------------------------------------------------|
A|---------------------------------------------------------------------------|
E|---------------------------------------------------------------------------|


e|---------------------------------------------------------------------------|
B|-----10-12-13-12-10----10--------8-10/12-8---------------------------------|
G|--10----------------10---------9-------------------------------------------|
D|---------------------------------------------------------------------------|
A|---------------------------------------------------------------------------|
E|---------------------------------------------------------------------------|


e|-------7--------------------------7---------10-----------------------------|
B|-----8---8-10-8-8---------------8---8-10/12--------------------------------|
G|--9--------------9-----------8---------------------------------------------|
D|---------------------------------------------------------------------------|
A|---------------------------------------------------------------------------|
E|---------------------------------------------------------------------------|


e|---------------------------------------------------------------------------|
B|-----10-12-13-12-10----10--------------------------------------------------|
G|--10----------------10---------11\8----------------------------------------|
D|---------------------------------------------------------------------------|
A|---------------------------------------------------------------------------|
E|---------------------------------------------------------------------------|


Em                   B7
Would it be too outrageous to say

              Dm                                   Am
We're either shouting or we're shagging locked in tempestuous phase

    Em                           B7
At least that's how we felt yesterday

   Dm                              B7
The eyes are getting heavier and whether you're sleep or

Am
awake is a mistery
                            G
Would a kiss be too much to ask
                                                            Am
When you fit me as sunday's frozen pitch fits the thermos flask

It's a pity
                           B7
It just hit me we can't go back

To the chest touching on the back

Outro:
e|---------------------------------------------------------------------------|
B|---------------------------------------------------------------------------|
G|---------------------------------------------------------------------------|
D|--5-5-4-4------------------------------------------------------------------|
A|---------------------------------------------------------------------------|
E|---------------------------------------------------------------------------|

Guitar 1:

e|---------------------------------------------------------------------------|
B|---------------------------------------------------------------------------|
G|---------------------------------------------------------------------------|
D|---------------------10-9--7-9-7-9-7-----7----7----------------------------|
A|--10-9--7---7-7-9-10------------------10---10---10-12-7--------------------|
E|---------------------------------------------------------------------------|

e|---------------------------------------------------------------------------|
B|---------------------------------------------------------------------------|
G|---------------------------------------------------------------------------|
D|-----------b10-9--10-7-------7-7----7-7------------------------------------|
A|--7-7-9-10----------------10-----10-----10-9-------------------------------|
E|---------------------------------------------------------------------------|


Guitar 2:

e|-------7--------------------------7---------10-----------------------------|
B|-----8---8-10-8-8---------------8---8-10/12--------------------------------|
G|--9--------------9-----------8---------------------------------------------|
D|---------------------------------------------------------------------------|
A|---------------------------------------------------------------------------|
E|---------------------------------------------------------------------------|


e|---------------------------------------------------------------------------|
B|-----10-12-13-12-10----10--------8-10/12-8---------------------------------|
G|--10----------------10---------9-------------------------------------------|
D|---------------------------------------------------------------------------|
A|---------------------------------------------------------------------------|
E|---------------------------------------------------------------------------|

e|-------7--------------------------7---------10-----------------------------|
B|-----8---8-10-8-8---------------8---8-10/12--------------------------------|
G|--9--------------9-----------8---------------------------------------------|
D|---------------------------------------------------------------------------|
A|---------------------------------------------------------------------------|
E|---------------------------------------------------------------------------|


e|---------------------------------------------------------------------------|
B|-----10-12-13-12-10----10--------8-10/12-8---8\7---------------------------|
G|--10----------------10---------9-------------------------------------------|
D|---------------------------------------------------------------------------|
A|---------------------------------------------------------------------------|
E|---------------------------------------------------------------------------|

| /  slide up
| \  slide down
| h  hammer-on
| p  pull-off
| ~  vibrato
| +  harmonic
| x  Mute note
===============================================================================
comments
We did not receive enough feedback on this tab! Please rate:
print report bad tab
1 2 3 4 5
I want to post or [tab]
guest
You may want to rate the tab now too:
select rating
Please do not post tabs as comments. Select "correction" instead!