Oops, an error
Loading. Please wait.

View From The Afternoon Tab

ver3
ver3

Intro

Whole song

More versions @911Tabs.com
12,347 views 48 this week
1 commentread comment
1 2 3 4 5
accurate
x 11
add to favorites launch autoscroll
font size
0
reset
Autoscroll
+/-
esc
set tempo
stop
Contributor
Difficulty
intermediate
WARNING: You are trying to view
                                    content from Ultimate-Guitar.com
                                    in an unauthorized application,
                                    which is prohibited.

                                    Please use an official Ultimate
                                    Guitar Tabs application for iPhone,
                                    iPad or Android to access legitimate
                                    chords, guitar, bass, and drum tabs
                                    from Ultimate-Guitar.com database.

                                    Type "ultimate guitar tabs" in Apple
                                    App Store's or Android Market's
                                    search to find the application.
----------------------------------------------------------------------
                 THE VIEW FROM THE AFTERNOON - ARCTIC MONKEYS
----------------------------------------------------------------------

Band: Arctic Monkeys
Song: The View From The Afternoon
Album: Whatever People Say I Am, That's What I'm Not (2006)


Tabbed by: skatersic666
E-mail: totalrock2003@yahoo.com


Tuning: STANDARD (E A D G B e)

This is tabbed out for guitar one and guitar two.

Listen to the CD to get the strumming correct. 

Any corrections i will be happy to change. If you like this tab or find
it helpful please rate it

Thank You
----------------------------------------------------------------------
----------------------------------------------------------------------

:INTRO: Guitars ONE and TWO [DISTORTION]
   A5
|---------------------------------------------------------------------|
|---------------------------------------------------------------------|
|---------------------------------------------------------------------|
|--7-7-7-7---7-7-7-7---7-7-7-7---7-7-7-7---7-7-7-7---7-7-7-7----------|
|--7-7-7-7---7-7-7-7---7-7-7-7---7-7-7-7---7-7-7-7---7-7-7-7----------|
|--5-5-5-5---5-5-5-5---5-5-5-5---5-5-5-5---5-5-5-5---5-5-5-5----------|
  D#5                  A5
|---------------------------------------------------------------------|
|-8--8---8-8-8--8-8---------------------------------------------------|
|-8--8---8-8-8--8-8-0-------------------------------------------------|
|-8--8---8-8-8--8-8-0--7-7-7-7---7-7-7-7---7-7-7-7---7-7-7-7---7-7-7-7|
|-6--6---6-6-6--6-6-0--7-7-7-7---7-7-7-7---7-7-7-7---7-7-7-7---7-7-7-7|
|----------------------5-5-5-5---5-5-5-5---5-5-5-5---5-5-5-5---5-5-5-5|
           D#5                  A5
|---------------------------------------------------------------------|
|----------8--8---8-8-8--8-8------------------------------------------|
|----------8--8---8-8-8--8-8-0----------------------------------------|
|-7-7-7-7--8--8---8-8-8--8-8-0--7-7-7-7---7-7-7-7---7-7-7-7---7-7-7-7-|
|-7-7-7-7--6--6---6-6-6--6-6-0--7-7-7-7---7-7-7-7---7-7-7-7---7-7-7-7-|
|-5-5-5-5-----------------------5-5-5-5---5-5-5-5---5-5-5-5---5-5-5-5-|
                     D#5                  A5
|---------------------------------------------------------------------|
|--------------------8--8---8-8-8--8-8--------------------------------|
|--------------------8--8---8-8-8--8-8-0------------------------------|
|-7-7-7-7---7-7-7-7--8--8---8-8-8--8-8-0--7-7-7-7---7-7-7-7-----------|
|-7-7-7-7---7-7-7-7--6--6---6-6-6--6-6-0--7-7-7-7---7-7-7-7-----------|
|-5-5-5-5---5-5-5-5-----------------------5-5-5-5---5-5-5-5-----------|


:VERSE ONE: Guitar TWO [CLEAN]
  A     G     C     E     A     E       C   D     
  Anticipation   has   a   habit  to    set you up
|---------------------------------------------------------------------|
|-------------5-x-x-9-x-x-------9-x-x---5---7---9---------------------|
|-6-x-x-4-x-x-5-x-x-9-x-x-6-x-x-9-x-x---5---7---9---------------------|
|-7-x-x-5-x-x-5-x-x-9-x-x-7-x-x-9-x-x---5---7---9---------------------|
|-7-x-x-5-x-x-3-x-x-7-x-x-7-x-x-7-x-x---3---5---7---------------------|
|-5-x-x-3-x-x-------------5-x-x---------------------------------------|
  A     G     C     E     A     E       C   D   E      
   For dissapointment in evening  enter-tainment but
|---------------------------------------------------------------------|
|-------------5-x-x-9-x-x-------9-x-x---5---7---9---------------------|
|-6-x-x-4-x-x-5-x-x-9-x-x-6-x-x-9-x-x---5---7---9---------------------|
|-7-x-x-5-x-x-5-x-x-9-x-x-7-x-x-9-x-x---5---7---9---------------------|
|-7-x-x-5-x-x-3-x-x-7-x-x-7-x-x-7-x-x---3---5---7---------------------|
|-5-x-x-3-x-x-------------5-x-x---------------------------------------|

 Guitar ONE                             C   D   E  
  Tonight  there'll  be  some  love
|---------------------------------------------------------------------|
|---------------------------------------5---7---8---------------------|
|---------------------------------------5---7---9---------------------|
|---------------------------------------5---7---9---------------------|
|---------------------------------------3---5---7---------------------|
|---------------------------------------------------------------------|
||Guitar TWO  C     E     A     E       C   D   E  
|---------------------------------------------------------------------|
|-------------5-x-x-9-x-x-------9-x-x---5---7---9---------------------|
|-6-x-x-4-x-x-5-x-x-9-x-x-6-x-x-9-x-x---5---7---9---------------------|
|-7-x-x-5-x-x-5-x-x-9-x-x-7-x-x-9-x-x---5---7---9---------------------|
|-7-x-x-5-x-x-3-x-x-7-x-x-7-x-x-7-x-x---3---5---7---------------------|
|-5-x-x-3-x-x-------------5-x-x---------------------------------------|

Guitar ONE                                                      A
|Tonight there'll be a ruckus yeah regardless of whats gone before
|---------------------------------------------------------------------|
|---------------------------------------------------------------------|
|---------------------------------------------------------------7--7--|
|---------------------------------------------------------------7--7--|
|---------------------------------------------------------------7--7--|
|---------------------------------------------------------------5--5--|
|| A     G       C       E       A       E        D         C 
|---------------------------------------------------------------------|
|----------------5-x-x---9-x-x-----------9-x-x-----7-x-x----5---------|
|-6-x-x--4-x-x---5-x-x---9-x-x---6-x-x---9-x-x-----7-x-x----5---------|
|-7-x-x--5-x-x---5-x-x---9-x-x---7-x-x---9-x-x-----7-x-x----5---------|
|-7-x-x--5-x-x---3-x-x---7-x-x---7-x-x---7-x-x-----5-x-x----3---------|
|-5-x-x--3-x-x-------------------5-x-x--------------------------------|

Guitar ONE                                                      A
|I want  to see all of   the things that we've    already  seen
|---------------------------------------------------------------------|
|---------------------------------------------------------------------|
|---------------------------------------------------------------7--7--|
|---------------------------------------------------------------7--7--|
|---------------------------------------------------------------7--7--|
|---------------------------------------------------------------5--5--|
|| A     G       C       E       A       E         A       E 
|---------------------------------------------------------------------|
|----------------5-x-x---9-x-x-----------9-x-x-------------9-x-x------|
|-6-x-x--4-x-x---5-x-x---9-x-x---6-x-x---9-x-x-----6-x-x---9-x-x------|
|-7-x-x--5-x-x---5-x-x---9-x-x---7-x-x---9-x-x-----7-x-x---9-x-x------|
|-7-x-x--5-x-x---3-x-x---7-x-x---7-x-x---7-x-x-----7-x-x---7-x-x------|
|-5-x-x--3-x-x-------------------5-x-x-------------5-x-x--------------|

   A     G       C       E       A       E         A       E
  Lairy  girls   hung out the   window   of a     limou   sine
|---------------------------------------------------------------------|
|----------------5-x-x---9-x-x-----------9-x-x-------------9-x-x------|
|-6-x-x--4-x-x---5-x-x---9-x-x---6-x-x---9-x-x-----6-x-x---9-x-x------|
|-7-x-x--5-x-x---5-x-x---9-x-x---7-x-x---9-x-x-----7-x-x---9-x-x------|
|-7-x-x--5-x-x---3-x-x---7-x-x---7-x-x---7-x-x-----7-x-x---7-x-x------|
|-5-x-x--3-x-x-------------------5-x-x-------------5-x-x--------------|

  Guitar ONE  C     E     A     E       C   D   E  
   Be  cause   it's   fan  cy   dress
|---------------------------------------------------------------------|
|-------------5-x-x-9-x-x-------9-x-x---5---7---9---------------------|
|-6-x-x-4-x-x-5-x-x-9-x-x-6-x-x-9-x-x---5---7---9---------------------|
|-7-x-x-5-x-x-5-x-x-9-x-x-7-x-x-9-x-x---5---7---9---------------------|
|-7-x-x-5-x-x-3-x-x-7-x-x-7-x-x-7-x-x---3---5---7---------------------|
|-5-x-x-3-x-x-------------5-x-x---------------------------------------|
||Guitar TWO  C     E     A     E       C   D   E  
|---------------------------------------------------------------------|
|-------------5-x-x-9-x-x-------9-x-x---5---7---9---------------------|
|-6-x-x-4-x-x-5-x-x-9-x-x-6-x-x-9-x-x---5---7---9---------------------|
|-7-x-x-5-x-x-5-x-x-9-x-x-7-x-x-9-x-x---5---7---9---------------------|
|-7-x-x-5-x-x-3-x-x-7-x-x-7-x-x-7-x-x---3---5---7---------------------|
|-5-x-x-3-x-x-------------5-x-x---------------------------------------|

  guitar ONE     C       E       A       E         A       E 
 And they're all looking full on in bunny ears and devil horns
|---------------------------------------------------------------------|
|----------------5-x-x---9-x-x-----------9-x-x-------------9-x-x------|
|-6-x-x--4-x-x---5-x-x---9-x-x---6-x-x---9-x-x-----6-x-x---9-x-x------|
|-7-x-x--5-x-x---5-x-x---9-x-x---7-x-x---9-x-x-----7-x-x---9-x-x------|
|-7-x-x--5-x-x---3-x-x---7-x-x---7-x-x---7-x-x-----7-x-x---7-x-x------|
|-5-x-x--3-x-x-------------------5-x-x-------------5-x-x--------------|
||guitar TWO     C       E       A       E         A       E 
|---------------------------------------------------------------------|
|----------------5-x-x---9-x-x-----------9-x-x-------------9-x-x------|
|-6-x-x--4-x-x---5-x-x---9-x-x---6-x-x---9-x-x-----6-x-x---9-x-x------|
|-7-x-x--5-x-x---5-x-x---9-x-x---7-x-x---9-x-x-----7-x-x---9-x-x------|
|-7-x-x--5-x-x---3-x-x---7-x-x---7-x-x---7-x-x-----7-x-x---7-x-x------|
|-5-x-x--3-x-x-------------------5-x-x-------------5-x-x--------------|


:BRIDGE: [DISTORTION]
 Guitar ONE
 A5      G5      E5   N.C         A5    G5       E5   N.C
  And hats!
|---------------------------------------------------------------------|
|---------------------------------------------------------------------|
|---------------------------------------------------------------------|
|---------------------------------------------------------------------|
|---------------------------------------------------------------------|
|-5-5-0--3-3-3-0--0-0-/17-15-12---5-5-0--3-3-3-0--0-0-/17-17-17-15-/20|
||Guitar TWO
||A5     G5       E5              A5    G5       E5
|---------------------------------------------------------------------|
|---------------------------------------------------------------------|
|---------------------------------------------------------------------|
|-7-7-0--5-5-5-0--2-2-------------7-7-0--5-5-5-0--2-2-----------------|
|-7-7-0--5-5-5-0--2-2-------------7-7-0--5-5-5-0--2-2-----------------|
|-5-5-0--3-3-3-0--0-0-------------5-5-0--3-3-3-0--0-0-----------------|

 A5      G5      E5   N.C              A5    G5       E5    N.C
|---------------------------------------------------------------------|
|---------------------------------------------------------------------|
|---------------------------------------------------------------------|
|---------------------------------------------------------------------|
|----------------------------------------------------------/7---5---3-|
|-5-5-0--3-3-3-0--0-0-/19-19-19-15-\12-5-5-0--3-3-3-0--0-0------------|
||
||A5     G5       E5              A5    G5       E5
|---------------------------------------------------------------------|
|---------------------------------------------------------------------|
|---------------------------------------------------------------------|
|-7-7-0--5-5-5-0--2-2-----------------7-7-0--5-5-5-0--2-2-------------|
|-7-7-0--5-5-5-0--2-2-----------------7-7-0--5-5-5-0--2-2-------------|
|-5-5-0--3-3-3-0--0-0-----------------5-5-0--3-3-3-0--0-0-------------|


:VERSE: [CLEAN]
Guitar ONE  
 A            C        A         A
 Anticipation has a habit to set you up
|---------------------------------------------------------------------|
|-------------5-------------------------------------------------------|
|-6-----------5--------6---------6------------------------------------|
|-7-----------5--------7---------7------------------------------------|
|-7-----------3--------7---------7------------------------------------|
|-5--------------------5---------5------------------------------------|
||Guitar TWO
||   G           E         E        E
|---------------------------------------------------------------------|
|----------------9---------9--------9---------------------------------|
|-----4----------9---------9--------9---------------------------------|
|-----5----------9---------9--------9---------------------------------|
|-----5----------7---------7--------7---------------------------------|
|-----3---------------------------------------------------------------|

 A            C         A          A
 For disappointment in evening entertainment but
|---------------------------------------------------------------------|
|-------------5-------------------------------------------------------|
|-6-----------5---------6----------6----------------------------------|
|-7-----------5---------7----------7----------------------------------|
|-7-----------3---------7----------7----------------------------------|
|-5---------------------5----------5----------------------------------|
||    G           E          E         E
|---------------------------------------------------------------------|
|-----------------9----------9---------9------------------------------|
|-----4-----------9----------9---------9------------------------------|
|-----5-----------9----------9---------9------------------------------|
|-----5-----------7----------7---------7------------------------------|
|-----3---------------------------------------------------------------|

 A            C         A         C   D   E
 Tonight there'll be some love 
|---------------------------------------------------------------------|
|-------------5-------------------5---7---9---------------------------|
|-6-----------5---------6---------5---7---9---------------------------|
|-7-----------5---------7---------5---7---9---------------------------|
|-7-----------3---------7---------3---5---7---------------------------|
|-5---------------------5---------------------------------------------|
||    G           E          E    C   D   E
|---------------------------------------------------------------------|
|-----------------9----------9----5---7---9---------------------------|
|-----4-----------9----------9----5---7---9---------------------------|
|-----5-----------9----------9----5---7---9---------------------------|
|-----5-----------7----------7----3---5---7---------------------------|
|-----3---------------------------------------------------------------|
  
  A               C            A                D
 Tonight there'll be a ruckus yeah Regardless of what's gone before
|---------------------------------------------------------------------|
|-----------------5-----------------------------7---------------------|
|-6---------------5------------6----------------7---------------------|
|-7---------------5------------7----------------7---------------------|
|-7---------------3------------7----------------5---------------------|
|-5----------------------------5--------------------------------------|
||    G                E               E               C
|---------------------------------------------------------------------|
|----------------------9---------------9---------------5--------------|
|-----4----------------9---------------9---------------5--------------|
|-----5----------------9---------------9---------------5--------------|
|-----5----------------7---------------7---------------3--------------|
|-----3---------------------------------------------------------------|

 A       G
|I want  to see all of   the things that we've    already  seen
|---------------------------------------------------------------------|
|---------------------------------------------------------------------|
|---------------------------------------------------------------------|
|-7-7----5------------------------------------------------------------|
|-7-7----5------------------------------------------------------------|
|-5-5----3------------------------------------------------------------|
|| A     G       C       E       A       E         A       E 
|---------------------------------------------------------------------|
|----------------5-x-x---9-x-x-----------9-x-x-------------9-x-x------|
|-6-x-x--4-x-x---5-x-x---9-x-x---6-x-x---9-x-x-----6-x-x---9-x-x------|
|-7-x-x--5-x-x---5-x-x---9-x-x---7-x-x---9-x-x-----7-x-x---9-x-x------|
|-7-x-x--5-x-x---3-x-x---7-x-x---7-x-x---7-x-x-----7-x-x---7-x-x------|
|-5-x-x--3-x-x-------------------5-x-x-------------5-x-x--------------|

 A       G
| I want to see you take the jackpot out the fruit machine
|---------------------------------------------------------------------|
|---------------------------------------------------------------------|
|---------------------------------------------------------------------|
|-7-7----5------------------------------------------------------------|
|-7-7----5------------------------------------------------------------|
|-5-5----3------------------------------------------------------------|
|| A     G       C       E       A       E         A       E 
|---------------------------------------------------------------------|
|----------------5-x-x---9-x-x-----------9-x-x-------------9-x-x------|
|-6-x-x--4-x-x---5-x-x---9-x-x---6-x-x---9-x-x-----6-x-x---9-x-x------|
|-7-x-x--5-x-x---5-x-x---9-x-x---7-x-x---9-x-x-----7-x-x---9-x-x------|
|-7-x-x--5-x-x---3-x-x---7-x-x---7-x-x---7-x-x-----7-x-x---7-x-x------|
|-5-x-x--3-x-x-------------------5-x-x-------------5-x-x--------------|

  A     G     C     E     A     E       C   D   E  
   And  put   it    all   back  in
|---------------------------------------------------------------------|
|-------------5-x-x-9-x-x-------9-x-x---5---7---9---------------------|
|-6-x-x-4-x-x-5-x-x-9-x-x-6-x-x-9-x-x---5---7---9---------------------|
|-7-x-x-5-x-x-5-x-x-9-x-x-7-x-x-9-x-x---5---7---9---------------------|
|-7-x-x-5-x-x-3-x-x-7-x-x-7-x-x-7-x-x---3---5---7---------------------|
|-5-x-x-3-x-x-------------5-x-x---------------------------------------|
||A     G     C     E     A     E       C   D   E  
|---------------------------------------------------------------------|
|-------------5-x-x-9-x-x-------9-x-x---5---7---9---------------------|
|-6-x-x-4-x-x-5-x-x-9-x-x-6-x-x-9-x-x---5---7---9---------------------|
|-7-x-x-5-x-x-5-x-x-9-x-x-7-x-x-9-x-x---5---7---9---------------------|
|-7-x-x-5-x-x-3-x-x-7-x-x-7-x-x-7-x-x---3---5---7---------------------|
|-5-x-x-3-x-x-------------5-x-x---------------------------------------|

  A      G       C       E       A       E         A       E 
  You've got to understand that you can never beat the bandit no
|---------------------------------------------------------------------|
|----------------5-x-x---9-x-x-----------9-x-x-------------9-x-x------|
|-6-x-x--4-x-x---5-x-x---9-x-x---6-x-x---9-x-x-----6-x-x---9-x-x------|
|-7-x-x--5-x-x---5-x-x---9-x-x---7-x-x---9-x-x-----7-x-x---9-x-x------|
|-7-x-x--5-x-x---3-x-x---7-x-x---7-x-x---7-x-x-----7-x-x---7-x-x------|
|-5-x-x--3-x-x-------------------5-x-x-------------5-x-x--------------|
||A      G       C       E       A       E         A       E 
|---------------------------------------------------------------------|
|----------------5-x-x---9-x-x-----------9-x-x-------------9-x-x------|
|-6-x-x--4-x-x---5-x-x---9-x-x---6-x-x---9-x-x-----6-x-x---9-x-x------|
|-7-x-x--5-x-x---5-x-x---9-x-x---7-x-x---9-x-x-----7-x-x---9-x-x------|
|-7-x-x--5-x-x---3-x-x---7-x-x---7-x-x---7-x-x-----7-x-x---7-x-x------|
|-5-x-x--3-x-x-------------------5-x-x-------------5-x-x--------------|


:CHORUS:
 Guitar ONE  N.C
 ..prised,   no    she    won't    be    shocked
|---------------------------------------------------------------------|
|---------------------------------------------------------------------|
|--------------7---9---7----------------7---9---7---------------------|
|-7---10---7-------------10-----7---10--------------------------------|
|---------------------------------------------------------------------|
|---------------------------------------------------------------------|
||Guitar TWO   F5
|---------------------------------------------------------------------|
|-10-10-10-10--10-10-10-10--10-10-10-10--10-10-10-10------------------|
|-10-10-10-10--10-10-10-10--10-10-10-10--10-10-10-10------------------|
|-10-10-10-10--10-10-10-10--10-10-10-10--10-10-10-10------------------|
|-8--8--8--8---8--8--8--8---8--8--8--8---8--8--8--8-------------------|
|---------------------------------------------------------------------|

  N.C
 When she pulled the star... the lot
|---------------------------------------------------------------------|
|---------------------------------------------------------------------|
|----------7--9--7-----------7--9--7----------------------------------|
|-7--10--7---------10--7--10------------------------------------------|
|---------------------------------------------------------------------|
|---------------------------------------------------------------------|
||D5
|---------------------------------------------------------------------|
|-7-7-7-7--7-7-7-7--7-7-7-7--7-7-7-7----------------------------------|
|-7-7-7-7--7-7-7-7--7-7-7-7--7-7-7-7----------------------------------|
|-7-7-7-7--7-7-7-7--7-7-7-7--7-7-7-7----------------------------------|
|-5-5-5-5--5-5-5-5--5-5-5-5--5-5-5-5----------------------------------|
|---------------------------------------------------------------------|

  N.C
 And it's verse and chapters standing her in bogs
|---------------------------------------------------------------------|
|---------------------------------------------------------------------|
|--------------7---9---7----------------7---9---7---------------------|
|-7---10---7-------------10-----7---10--------------------------------|
|---------------------------------------------------------------------|
|---------------------------------------------------------------------|
|| F5
|---------------------------------------------------------------------|
|-10-10-10-10--10-10-10-10--10-10-10-10--10-10-10-10------------------|
|-10-10-10-10--10-10-10-10--10-10-10-10--10-10-10-10------------------|
|-10-10-10-10--10-10-10-10--10-10-10-10--10-10-10-10------------------|
|-8--8--8--8---8--8--8--8---8--8--8--8---8--8--8--8-------------------|
|---------------------------------------------------------------------|

  N.C
 And all you said you know... the lot
|---------------------------------------------------------------------|
|---------------------------------------------------------------------|
|----------7--9--7-----------7--9--7----------------------------------|
|-7--10--7---------10--7--10------------------------------------------|
|---------------------------------------------------------------------|
|---------------------------------------------------------------------|
||D5
|---------------------------------------------------------------------|
|-7-7-7-7--7-7-7-7--7-7-7-7--7-7-7-7----------------------------------|
|-7-7-7-7--7-7-7-7--7-7-7-7--7-7-7-7----------------------------------|
|-7-7-7-7--7-7-7-7--7-7-7-7--7-7-7-7----------------------------------|
|-5-5-5-5--5-5-5-5--5-5-5-5--5-5-5-5----------------------------------|
|---------------------------------------------------------------------|

 Guitars ONE and TWO
  F5
    Bear  that  in  mind  tonight,  bear  that  in  mind  and  you 
|---------------------------------------------------------------------|
|-10-x-10-x-10-x-10-x-10-x-10-x-10-x-10-x-10-x-10-x-10-x-10-x-10-x-10-|
|-10-x-10-x-10-x-10-x-10-x-10-x-10-x-10-x-10-x-10-x-10-x-10-x-10-x-10-|
|-10-x-10-x-10-x-10-x-10-x-10-x-10-x-10-x-10-x-10-x-10-x-10-x-10-x-10-|
|-8--x-8--x-8--x-8--x-8--x-8--x-8--x-8--x-8--x-8--x-8--x-8--x-8--x-8--|
|---------------------------------------------------------------------|
             D5
  should     bare  that  in  mind  tonight  bear  that  in  mind
|---------------------------------------------------------------------|
|-10-x-10-x--7-x-7-x-7-x-7-x-7-x-7-x-7-x-7-x-7-x-7-x-7-x-7-x-7-x-7-x--|
|-10-x-10-x--7-x-7-x-7-x-7-x-7-x-7-x-7-x-7-x-7-x-7-x-7-x-7-x-7-x-7-x--|
|-10-x-10-x--7-x-7-x-7-x-7-x-7-x-7-x-7-x-7-x-7-x-7-x-7-x-7-x-7-x-7-x--|
|-8--x-8--x--5-x-5-x-5-x-5-x-5-x-5-x-5-x-5-x-5-x-5-x-5-x-5-x-5-x-5-x--|
|---------------------------------------------------------------------|
            F5
            See  you  can  pour  your  heart  out  but a  
|---------------------------------------------------------------------|
|-7-x-7-x---10-x-10-x-10-x-10-x-10-x-10-x-10-x-10-x-10-x-10-x---------|
|-7-x-7-x---10-x-10-x-10-x-10-x-10-x-10-x-10-x-10-x-10-x-10-x---------|
|-7-x-7-x---10-x-10-x-10-x-10-x-10-x-10-x-10-x-10-x-10-x-10-x---------|
|-5-x-5-x---8--x-8--x-8--x-8--x-8--x-8--x-8--x-8--x-8--x-8--x---------|
|---------------------------------------------------------------------|
                                 D5
  a  reason  it  will  block    'owt you give her after nine o'clock
|---------------------------------------------------------------------|
|-10-x-10-x-10-x-10-x-10-x-10-x--7-7-7-7--7-7-7-7--7-7-7-7--7-7-7-7---|
|-10-x-10-x-10-x-10-x-10-x-10-x--7-7-7-7--7-7-7-7--7-7-7-7--7-7-7-7---|
|-10-x-10-x-10-x-10-x-10-x-10-x--7-7-7-7--7-7-7-7--7-7-7-7--7-7-7-7---|
|-8--x-8--x-8--x-8--x-8--x-8--x--5-5-5-5--5-5-5-5--5-5-5-5--5-5-5-5---|
|---------------------------------------------------------------------|

:BRIDGE: [DISTORTION]
  A5      G5      E5   N.C         A5    G5       E5   N.C
|---------------------------------------------------------------------|
|---------------------------------------------------------------------|
|---------------------------------------------------------------------|
|---------------------------------------------------------------------|
|---------------------------------------------------------------------|
|-5-5-0--3-3-3-0--0-0-/17-15-12---5-5-0--3-3-3-0--0-0-/17-17-17-15-/20|
||Guitar TWO
||A5     G5       E5              A5    G5       E5
|---------------------------------------------------------------------|
|---------------------------------------------------------------------|
|---------------------------------------------------------------------|
|-7-7-0--5-5-5-0--2-2-------------7-7-0--5-5-5-0--2-2-----------------|
|-7-7-0--5-5-5-0--2-2-------------7-7-0--5-5-5-0--2-2-----------------|
|-5-5-0--3-3-3-0--0-0-------------5-5-0--3-3-3-0--0-0-----------------|

 A5      G5      E5   N.C              A5    G5       E5    N.C
|---------------------------------------------------------------------|
|---------------------------------------------------------------------|
|---------------------------------------------------------------------|
|---------------------------------------------------------------------|
|----------------------------------------------------------/7---5---3-|
|-5-5-0--3-3-3-0--0-0-/19-19-19-15-\12-5-5-0--3-3-3-0--0-0------------|
||
||A5     G5       E5              A5    G5       E5
|---------------------------------------------------------------------|
|---------------------------------------------------------------------|
|---------------------------------------------------------------------|
|-7-7-0--5-5-5-0--2-2-----------------7-7-0--5-5-5-0--2-2-------------|
|-7-7-0--5-5-5-0--2-2-----------------7-7-0--5-5-5-0--2-2-------------|
|-5-5-0--3-3-3-0--0-0-----------------5-5-0--3-3-3-0--0-0-------------|


:VERSE: [CLEAN]
 Guitar ONE
  A    C     A     B      A   C    A    B     A    C    A    B          
|-----------------------|--------------------|------------------------|
|------5----------------|-----5--------------|-----5------------------|
|-6----5-----6-----8----|-6---5----6----8----|-6---5----6----8--------|
|-7----5-----7-----9----|-7---5----7----9----|-7---5----7----9--------|
|-7----3-----7-----9----|-7---3----7----9----|-7---3----7----9--------|
|-5----------5-----7----|-5--------5----7----|-5--------5----7--------|
|| Guitar TWO
||  G     E     E     E     G    E    E    E     G    E    E      A 
|-----------------------|--------------------|------------------------|
|---------9-----9-----9-|--------9----9----9-|--------9----9----------|
|---4-----9-----9-----9-|---4----9----9----9-|---4----9----9------6---|
|---5-----9-----9-----9-|---5----9----9----9-|---5----9----9------7---|
|---5-----7-----7-----7-|---5----7----7----7-|---5----7----7------7---|
|---3-------------------|---3----------------|---3----------------5---|

  Anticipation   has     a      habit   to     set     you   up
  A     G       C       E       A       E         A       E 
|---------------------------------------------------------------------|
|----------------5-x-x---9-x-x-----------9-x-x-------------9-x-x------|
|-6-x-x--4-x-x---5-x-x---9-x-x---6-x-x---9-x-x-----6-x-x---9-x-x------|
|-7-x-x--5-x-x---5-x-x---9-x-x---7-x-x---9-x-x-----7-x-x---9-x-x------|
|-7-x-x--5-x-x---3-x-x---7-x-x---7-x-x---7-x-x-----7-x-x---7-x-x------|
|-5-x-x--3-x-x-------------------5-x-x-------------5-x-x--------------|
|| A     G       C       E       A       E         A       E 
|---------------------------------------------------------------------|
|----------------5-x-x---9-x-x-----------9-x-x-------------9-x-x------|
|-6-x-x--4-x-x---5-x-x---9-x-x---6-x-x---9-x-x-----6-x-x---9-x-x------|
|-7-x-x--5-x-x---5-x-x---9-x-x---7-x-x---9-x-x-----7-x-x---9-x-x------|
|-7-x-x--5-x-x---3-x-x---7-x-x---7-x-x---7-x-x-----7-x-x---7-x-x------|
|-5-x-x--3-x-x-------------------5-x-x-------------5-x-x--------------|

   A     G       C       E       A       E         A       E
  For  disappointment   in    evening    entertainment   but
|---------------------------------------------------------------------|
|----------------5-x-x---9-x-x-----------9-x-x-------------9-x-x------|
|-6-x-x--4-x-x---5-x-x---9-x-x---6-x-x---9-x-x-----6-x-x---9-x-x------|
|-7-x-x--5-x-x---5-x-x---9-x-x---7-x-x---9-x-x-----7-x-x---9-x-x------|
|-7-x-x--5-x-x---3-x-x---7-x-x---7-x-x---7-x-x-----7-x-x---7-x-x------|
|-5-x-x--3-x-x-------------------5-x-x-------------5-x-x--------------|
|| A     G       C       E       A       E         A       E
|---------------------------------------------------------------------|
|----------------5-x-x---9-x-x-----------9-x-x-------------9-x-x------|
|-6-x-x--4-x-x---5-x-x---9-x-x---6-x-x---9-x-x-----6-x-x---9-x-x------|
|-7-x-x--5-x-x---5-x-x---9-x-x---7-x-x---9-x-x-----7-x-x---9-x-x------|
|-7-x-x--5-x-x---3-x-x---7-x-x---7-x-x---7-x-x-----7-x-x---7-x-x------|
|-5-x-x--3-x-x-------------------5-x-x-------------5-x-x--------------|

  A     G     C     E     A     E       C   D   E  
 Tonight there'll be some love arh!
|---------------------------------------------------------------------|
|-------------5-x-x-9-x-x-------9-x-x---5---7---9---------------------|
|-6-x-x-4-x-x-5-x-x-9-x-x-6-x-x-9-x-x---5---7---9---------------------|
|-7-x-x-5-x-x-5-x-x-9-x-x-7-x-x-9-x-x---5---7---9---------------------|
|-7-x-x-5-x-x-3-x-x-7-x-x-7-x-x-7-x-x---3---5---7---------------------|
|-5-x-x-3-x-x-------------5-x-x---------------------------------------|
||A     G     C     E     A     E       C   D   E 
|---------------------------------------------------------------------|
|-------------5-x-x-9-x-x-------9-x-x---5---7---9---------------------|
|-6-x-x-4-x-x-5-x-x-9-x-x-6-x-x-9-x-x---5---7---9---------------------|
|-7-x-x-5-x-x-5-x-x-9-x-x-7-x-x-9-x-x---5---7---9---------------------|
|-7-x-x-5-x-x-3-x-x-7-x-x-7-x-x-7-x-x---3---5---7---------------------|
|-5-x-x-3-x-x-------------5-x-x---------------------------------------|

  A     G       C       E       A       E        D         C 
|Tonight there'll be a ruckus yeah regardless of whats gone before
|---------------------------------------------------------------------|
|----------------5-x-x---9-x-x-----------9-x-x-----7-x-x----5---------|
|-6-x-x--4-x-x---5-x-x---9-x-x---6-x-x---9-x-x-----7-x-x----5---------|
|-7-x-x--5-x-x---5-x-x---9-x-x---7-x-x---9-x-x-----7-x-x----5---------|
|-7-x-x--5-x-x---3-x-x---7-x-x---7-x-x---7-x-x-----5-x-x----3---------|
|-5-x-x--3-x-x-------------------5-x-x--------------------------------|
|| A     G       C       E       A       E        D         C 
|---------------------------------------------------------------------|
|----------------5-x-x---9-x-x-----------9-x-x-----7-x-x----5---------|
|-6-x-x--4-x-x---5-x-x---9-x-x---6-x-x---9-x-x-----7-x-x----5---------|
|-7-x-x--5-x-x---5-x-x---9-x-x---7-x-x---9-x-x-----7-x-x----5---------|
|-7-x-x--5-x-x---3-x-x---7-x-x---7-x-x---7-x-x-----5-x-x----3---------|
|-5-x-x--3-x-x-------------------5-x-x--------------------------------|

:cCHORUS:
  N.C
 When she pulled the star... the lot
|---------------------------------------------------------------------|
|---------------------------------------------------------------------|
|----------7--9--7-----------7--9--7----------------------------------|
|-7--10--7---------10--7--10------------------------------------------|
|---------------------------------------------------------------------|
|---------------------------------------------------------------------|
||D5
|---------------------------------------------------------------------|
|-7-7-7-7--7-7-7-7--7-7-7-7--7-7-7-7----------------------------------|
|-7-7-7-7--7-7-7-7--7-7-7-7--7-7-7-7----------------------------------|
|-7-7-7-7--7-7-7-7--7-7-7-7--7-7-7-7----------------------------------|
|-5-5-5-5--5-5-5-5--5-5-5-5--5-5-5-5----------------------------------|
|---------------------------------------------------------------------|

  N.C
 And it's verse and chapters standing her in bogs
|---------------------------------------------------------------------|
|---------------------------------------------------------------------|
|--------------7---9---7----------------7---9---7---------------------|
|-7---10---7-------------10-----7---10--------------------------------|
|---------------------------------------------------------------------|
|---------------------------------------------------------------------|
|| F5
|---------------------------------------------------------------------|
|-10-10-10-10--10-10-10-10--10-10-10-10--10-10-10-10------------------|
|-10-10-10-10--10-10-10-10--10-10-10-10--10-10-10-10------------------|
|-10-10-10-10--10-10-10-10--10-10-10-10--10-10-10-10------------------|
|-8--8--8--8---8--8--8--8---8--8--8--8---8--8--8--8-------------------|
|---------------------------------------------------------------------|

  N.C
 And all you said you know... the lot
|---------------------------------------------------------------------|
|---------------------------------------------------------------------|
|----------7--9--7-----------7--9--7----------------------------------|
|-7--10--7---------10--7--10------------------------------------------|
|---------------------------------------------------------------------|
|---------------------------------------------------------------------|
||D5
|---------------------------------------------------------------------|
|-7-7-7-7--7-7-7-7--7-7-7-7--7-7-7-7----------------------------------|
|-7-7-7-7--7-7-7-7--7-7-7-7--7-7-7-7----------------------------------|
|-7-7-7-7--7-7-7-7--7-7-7-7--7-7-7-7----------------------------------|
|-5-5-5-5--5-5-5-5--5-5-5-5--5-5-5-5----------------------------------|
|---------------------------------------------------------------------|

 Guitars ONE and TWO
  F5
    Bear  that  in  mind  tonight,  bear  that  in  mind  and  you 
|---------------------------------------------------------------------|
|-10-x-10-x-10-x-10-x-10-x-10-x-10-x-10-x-10-x-10-x-10-x-10-x-10-x-10-|
|-10-x-10-x-10-x-10-x-10-x-10-x-10-x-10-x-10-x-10-x-10-x-10-x-10-x-10-|
|-10-x-10-x-10-x-10-x-10-x-10-x-10-x-10-x-10-x-10-x-10-x-10-x-10-x-10-|
|-8--x-8--x-8--x-8--x-8--x-8--x-8--x-8--x-8--x-8--x-8--x-8--x-8--x-8--|
|---------------------------------------------------------------------|
             D5
  should     bare  that  in  mind  tonight  bear  that  in  mind
|---------------------------------------------------------------------|
|-10-x-10-x--7-x-7-x-7-x-7-x-7-x-7-x-7-x-7-x-7-x-7-x-7-x-7-x-7-x-7-x--|
|-10-x-10-x--7-x-7-x-7-x-7-x-7-x-7-x-7-x-7-x-7-x-7-x-7-x-7-x-7-x-7-x--|
|-10-x-10-x--7-x-7-x-7-x-7-x-7-x-7-x-7-x-7-x-7-x-7-x-7-x-7-x-7-x-7-x--|
|-8--x-8--x--5-x-5-x-5-x-5-x-5-x-5-x-5-x-5-x-5-x-5-x-5-x-5-x-5-x-5-x--|
|---------------------------------------------------------------------|
            F5
              you  can  pour  your  heart  out  about  
|---------------------------------------------------------------------|
|-7-x-7-x---10-x-10-x-10-x-10-x-10-x-10-x-10-x-10-x-10-x-10-x---------|
|-7-x-7-x---10-x-10-x-10-x-10-x-10-x-10-x-10-x-10-x-10-x-10-x---------|
|-7-x-7-x---10-x-10-x-10-x-10-x-10-x-10-x-10-x-10-x-10-x-10-x---------|
|-5-x-5-x---8--x-8--x-8--x-8--x-8--x-8--x-8--x-8--x-8--x-8--x---------|
|---------------------------------------------------------------------|
                                 D5
  three o clock                when the ... that the writer's block 
|---------------------------------------------------------------------|
|-10-x-10-x-10-x-10-x-10-x-10-x--7-7-7-7--7-7-7-7--7-7-7-7--7-7-7-7---|
|-10-x-10-x-10-x-10-x-10-x-10-x--7-7-7-7--7-7-7-7--7-7-7-7--7-7-7-7---|
|-10-x-10-x-10-x-10-x-10-x-10-x--7-7-7-7--7-7-7-7--7-7-7-7--7-7-7-7---|
|-8--x-8--x-8--x-8--x-8--x-8--x--5-5-5-5--5-5-5-5--5-5-5-5--5-5-5-5---|
|---------------------------------------------------------------------|

:OUTRO: Guitar ONE and TWO [DISTORTION]
   A5
|---------------------------------------------------------------------|
|---------------------------------------------------------------------|
|---------------------------------------------------------------------|
|--7-7-7-7---7-7-7-7---7-7-7-7---7-7-7-7---7-7-7-7---7-7-7-7----------|
|--7-7-7-7---7-7-7-7---7-7-7-7---7-7-7-7---7-7-7-7---7-7-7-7----------|
|--5-5-5-5---5-5-5-5---5-5-5-5---5-5-5-5---5-5-5-5---5-5-5-5----------|
  D#5                  A5
|---------------------------------------------------------------------|
|-8--8---8-8-8--8-8---------------------------------------------------|
|-8--8---8-8-8--8-8-0-------------------------------------------------|
|-8--8---8-8-8--8-8-0--7-7-7-7---7-7-7-7---7-7-7-7---7-7-7-7---7-7-7-7|
|-6--6---6-6-6--6-6-0--7-7-7-7---7-7-7-7---7-7-7-7---7-7-7-7---7-7-7-7|
|----------------------5-5-5-5---5-5-5-5---5-5-5-5---5-5-5-5---5-5-5-5|
           D#5                  A5
|---------------------------------------------------------------------|
|----------8--8---8-8-8--8-8------------------------------------------|
|----------8--8---8-8-8--8-8-0----------------------------------------|
|-7-7-7-7--8--8---8-8-8--8-8-0--7-7-7-7---7-7-7-7---5-----------------|
|-7-7-7-7--6--6---6-6-6--6-6-0--7-7-7-7---7-7-7-7---5-----------------|
|-5-5-5-5-----------------------5-5-5-5---5-5-5-5---3-----------------|

  C#7
Guitar ONE [CLEAN]
|-4-------------------------------------------------------------------|
|-6-------------------------------------------------------------------|
|-5-------------------------------------------------------------------|
|-6-------------------------------------------------------------------|
|-4-------------------------------------------------------------------|
|---------------------------------------------------------------------|

| /  slide up
| \  slide down
| h  hammer-on
| p  pull-off
| ~  vibrato
| +  harmonic
| x  Mute note
=============================================================================
comments
print report bad tab
1 comment total.
0 reply
jason_smiths wrote on September 5 2006, 09:03 pm

good tabs but the lyrics are wrong!
"when she pressed the star after she pressed unlock"
"theres verse and chapters sat in her inbox"
take it u never had a nokia 3310!

I want to post or [tab]
guest
You may want to rate the tab now too:
select rating
Please do not post tabs as comments. Select "correction" instead!