Oops, an error
Loading. Please wait.

Whatever People Say I Am Thats What I Am Not Bass Tab

8,798 views 60 this week
no commentswrite comment
1 2 3 4 5
excellent!
x 3
Autoscroll
+/-
esc
set tempo
stop
Contributor
Difficulty
intermediate
Hey! There's an official Ultimate Guitar app which is ideal
for learning songs when you're away from computer. Get the app
WARNING: You are trying to view
                                    content from Ultimate-Guitar.com
                                    in an unauthorized application,
                                    which is prohibited.

                                    Please use an official Ultimate
                                    Guitar Tabs application for iPhone,
                                    iPad or Android to access legitimate
                                    chords, guitar, bass, and drum tabs
                                    from Ultimate-Guitar.com database.

                                    Type "ultimate guitar tabs" in Apple
                                    App Store's or Android Market's
                                    search to find the application.
Artist: Arctic Monkeys

Album: Whatever People Say I Am That's What I Am Not



All tabs by Pedro Zappa
-----------------------------------------------------------------------------
-----------------------------------------------------------------------------


1. The View From The Afternoon


Intro

G||--------------------|--------------------|
D||--------------------|--------------------|
A||-0-0--0-0--0-0--0-0-|-0-0--0-0--0-0--0-0-|
E||--------------------|--------------------|
    i    i    i    i     i    i    i    i
G||--------------------|----------------------------||  x2
D||--------------------|-13---13---13.13.13.13-13---||
A||-0-0--0-0--0-0--0-0-|----------------------------||
E||--------------------|----------------------------||
    i    i    i    i     i    i    i           i
G||--------------------|--------------------|
D||--------------------|--------------------|
A||-0-0--0-0--10---15--|-0-0--0-0--10---15--|
E||--------------------|--------------------|
    i    i    i    i     i    i    i    i
G||--------------------|----------------------------|--------------------|
D||--------------------|-13---13---13.13.13.13-13---|--------------------|
A||-0-0--0-0--10---15--|----------------------------|-0-0--0-0--10---15--|
E||--------------------|----------------------------|--------------------|
    i    i    i    i     i    i    i           i      i    i    i    i

Verse 1

(wait)

G||--------------------|
D||--------------------|
A||x0-0--7-7--5-5--3---|
E||--------------------|
    i    i    i    i
G||--------------------|--------------------||  x2
D||------5---------3---|------2---------2---||
A||-0--------x3-3------|-0-------2---2------||
E||--------------------|--------------------||
    i    i    i    i     i    i    i    i
G||--------------------|--------------------|
D||------5---------3---|------2-------0--2--|
A||-0--------x3-3------|-0---------3--------|
E||--------------------|--------------------|
    i    i    i    i     i    i    i    i
G||--------------------|--------------------|
D||------5---------3---|------2-0----0------|
A||-0--------x3-3------|-0--------------3---|
E||--------------------|--------------------|
    i    i    i    i     i    i    i    i


G||--------------------|--------------------||  x2
D||--------------------|--------------------||
A||-0----0---0---------|--------------------||
E||-----------3-3--3-3-|-0----0-------------||
    i    i    i    i     i    i    i    i
G||--------------------|--------------------|
D||--------------------|--------------------|
A||-0----0---0---------|--------------------|
E||-----------3-3--3-3-|-12---12------------|
    i    i    i    i     i    i    i    i
G||--------------------|--------------------|
D||--------------------|--------------------|
A||-0----0---0---------|------7----5----3---|
E||-----------3-3--3-3-|-0------------------|
    i    i    i    i     i    i    i    i


Verse 2

(wait)

G||----------------------------|
D||----------------------------|
A||/12-12--12-12--12-12--12-12-|
E||----------------------------|
    i      i      i      i
G||--------------------|--------------------||  x2
D||------5---------3---|------2---------2---||
A||-0--------x3-3------|-0-------2---2------||
E||--------------------|--------------------||
    i    i    i    i     i    i    i    i
G||--------------------|--------------------|
D||------5---------3---|------2-------0--2--|
A||-0--------x3-3------|-0---------3--------|
E||--------------------|--------------------|
    i    i    i    i     i    i    i    i
G||--------------------|--------------------|
D||------5---------3---|------2-0----0------|
A||-0--------x3-3------|-0--------------3---|
E||--------------------|--------------------|
    i    i    i    i     i    i    i    i
G||--------------------|
D||--------------------|
A||-0------------------|
E||--------------------|
    i    i    i    i

Chorus

G||--------------------|--------------------|
D||--------------------|--------------------|
A||-8-8--8-8--8-8--8-8-|-8-8--8-8--8-8----7-|
E||--------------------|----------------8---|
    i    i    i    i     i    i    i    i
G||--------------------|--------------------|
D||--------------------|--------------------|
A||-5-5--5-5--5-5--5-5-|-5-5--5-5--5-5--5-5-|
E||--------------------|--------------------|
    i    i    i    i     i    i    i    i
G||--------------------|--------------------|
D||--------------------|--------------------|
A||-8-8--8-8--8-8--8-8-|-8-8--8-8--8-8----7-|
E||--------------------|----------------8---|
    i    i    i    i     i    i    i    i
G||--------------------|----------------------------|
D||--------------------|/12-12--12-12--12-12--12-12-|
A||-5-5--5-5--5-5--5-5-|----------------------------|
E||--------------------|----------------------------|
    i    i    i    i     i    i    i    i

G||--------------------|--------------------|
D||--------------------|--------------------|
A||---8----8----8----8-|---8----8----8----8-|
E||--------------------|--------------------|
    i    i    i    i     i    i    i    i
G||--------------------|--------------------|
D||--------------------|--------------------|
A||---5----5----5----5-|---5----5----5----5-|
E||--------------------|--------------------|
    i    i    i    i     i    i    i    i
G||--------------------|--------------------|
D||--------------------|--------------------|
A||---8----8----8----8-|---8----8----8----8-|
E||--------------------|--------------------|
    i    i    i    i     i    i    i    i
G||--------------------|--------------------|
D||--------------------|--------------------|
A||-5-5--5-5--5-5--5-5-|-5-5--5-5--5-5--5-5-|
E||--------------------|--------------------|
    i    i    i    i     i    i    i    i


G||--------------------|--------------------||  x2
D||--------------------|--------------------||
A||-0----0---0---------|--------------------||
E||-----------3-3--3-3-|-0----0-------------||
    i    i    i    i     i    i    i    i
G||--------------------|--------------------|
D||--------------------|--------------------|
A||-0----0---0---------|--------------------|
E||-----------3-3--3-3-|-12---12------------|
    i    i    i    i     i    i    i    i
G||--------------------|--------------------|
D||--------------------|--------------------|
A||-0----0---0---------|------7----5----3---|
E||-----------3-3--3-3-|-0------------------|
    i    i    i    i     i    i    i    i

(wait)

Verse 2

G||----------------------------|
D||----------------------------|
A||------------------12--12-12-|
E||----------------------------|
    i      i      i      i
G||--------------------|--------------------||  x2
D||------5---------3---|------2---------2---||
A||-0--------x3-3------|-0-------2---2------||
E||--------------------|--------------------||
    i    i    i    i     i    i    i    i
G||--------------------|--------------------|
D||------5---------3---|------2-------0--2--|
A||-0--------x3-3------|-0---------3--------|
E||--------------------|--------------------|
    i    i    i    i     i    i    i    i
G||--------------------|--------------------|
D||------5---------3---|------2-0----0------|
A||-0--------x3-3------|-0--------------3---|
E||--------------------|--------------------|
    i    i    i    i     i    i    i    i
G||--------------------|
D||--------------------|
A||-0------------------|
E||--------------------|
    i    i    i    i

Chorus 2

G||--------------------|--------------------|
D||--------------------|--------------------|
A||-8-8--8-8--8-8--8-8-|-8-8--8-8--8-8----7-|
E||--------------------|----------------8---|
    i    i    i    i     i    i    i    i
G||--------------------|--------------------|
D||--------------------|--------------------|
A||-5-5--5-5--5-5--5-5-|-5-5--5-5--5-5--5-5-|
E||--------------------|--------------------|
    i    i    i    i     i    i    i    i
G||--------------------|--------------------|
D||--------------------|--------------------|
A||-8-8--8-8--8-8--8-8-|-8-8--8-8--8-8----7-|
E||--------------------|----------------8---|
    i    i    i    i     i    i    i    i
G||--------------------|----------------------------|
D||--------------------|-0--12--12-12--12-12--12-12-|
A||-5-5--5-5--5-5--5-5-|----------------------------|
E||--------------------|----------------------------|
    i    i    i    i     i    i    i    i

G||--------------------|--------------------|
D||--------------------|--------------------|
A||---8----8----8----8-|---8----8----8----8-|
E||--------------------|--------------------|
    i    i    i    i     i    i    i    i
G||--------------------|--------------------|
D||--------------------|--------------------|
A||---5----5----5----5-|---5----5-----------|
E||--------------------|--------------------|
    i    i    i    i     i    i    i    i
G||--------------------|--------------------|
D||--------------------|--------------------|
A||-8-8--8-8--8-8--8-8-|-8-8--8-8--8-8--8-8-|
E||--------------------|--------------------|
    i    i    i    i     i    i    i    i
G||--------------------|----------------------------|
D||--------------------|-12-12--12-12--12-12--12-12-|
A||-5-5--5-5--5-5--5-5-|----------------------------|
E||--------------------|----------------------------|
    i    i    i    i     i      i      i      i

Outro

G||--------------------|--------------------|
D||--------------------|--------------------|
A||-0-0--0-0--0-0--0-0-|-0-0--0-0--0-0--0-0-|
E||--------------------|--------------------|
    i    i    i    i     i    i    i    i
G||--------------------|----------------------------|
D||--------------------|-13---13---13.13.13.13-13---|
A||-0-0--0-0--0-0--0-0-|----------------------------|
E||--------------------|----------------------------|
    i    i    i    i     i    i    i           i
G||--------------------|--------------------|
D||--------------------|--------------------|
A||-0-0--0-0--10---15--|-0-0--0-0--10---15--|
E||--------------------|--------------------|
    i    i    i    i     i    i    i    i
G||--------------------|----------------------------|
D||--------------------|-13---13---13.13.13.13-13---|
A||-0-0--0-0--10---15--|----------------------------|
E||--------------------|----------------------------|
    i    i    i    i     i    i    i           i
G||--------------------|--------------------|--------------------|
D||--------------------|--------------------|--------------------|
A||-0-0--0-0--10---15--|-11-----------------|--------------------|
E||--------------------|--------------------|-5------------------|
    i    i    i    i     i    i    i    i     i    i    i    i


Tab by Pedro Zappa
-----------------------------------------------------------------------------
-----------------------------------------------------------------------------

2. I Bet You Look Good On The Dancefloor


Intro

G||--------------------|--------------------|
D||--------------------|--------------------|
A||--------------------|--------------------|
E||-22-----------------|-22-----------------|
    i    i    i    i     i    i    i    i
G||--------------------|--------------------|
D||--------------------|--------------------|
A||--------------------|--------------------|
E||-22---------------00|-22-----------------|
    i    i    i    i     i    i    i    i
G||--------------------|--------------------|
D||--------------------|--------------------|
A||--------------------|--------------------|
E||-22-----------------|-22-----------------|
    i    i    i    i     i    i    i    i
G||--------------------|--------------------|
D||--------------------|--------------------|
A||--------------------|--------------------|
E||-22-----------------|-22---------------00|
    i    i    i    i     i    i    i    i
G||--------------------|--------------------|
D||--------------------|--------------------|
A||--------------------|--------------------|
E||-2-2--2-2--2-2--2-2-|-2-2--2-2--2-2--2-2-|
    i    i    i    i     i    i    i    i
G||--------------------|--------------------|
D||--------------------|--------------------|
A||--------------------|--------------------|
E||-2-2--2-2--2-2--2-2-|-2-2--2-2--2-2--2-2-|
    i    i    i    i     i    i    i    i
G||--------------------|--------------------|
D||--------------------|--------------------|
A||--------------------|--------------------|
E||-2-2--2-2--2-2--2-2-|-2-2--2-2--2-2--2-2-|
    i    i    i    i     i    i    i    i
G||--------------------|--------------------|
D||--------------------|--------------------|
A||--------------------|--------------------|
E||-2-2--2-2--2-2--2-2-|-2-2--2-2--2-2--2-2-|
    i    i    i    i     i    i    i    i

G||--------------------|--------------------||  x4
D||--------------------|--------------------||
A||-4------2----2----0-|-0----0-------------||
E||--------------------|-----------2--------||
    i    i    i    i     i    i    i    i

Verse 1

G||--------------------|--------------------||  x7
D||--------------------|--------------------||
A||-4------2----2----0-|-0----0-------------||
E||--------------------|-----------2--------||
    i    i    i    i     i    i    i    i
G||--------------------|--------------------||
D||--------------------|--------------------||
A||-4------2----2------|-0------------------||
E||--------------------|-----------0--------||
    i    i    i    i     i    i    i    i

Chorus 1

G||--------------------|--------------------|
D||-------------2------|-------------2------|
A||-----------4----4---|-----------4----4---|
E||-2----2-------------|-2----2-------------|
    i    i    i    i     i    i    i    i
G||--------------------|--------------------|
D||-------------2------|-------------2------|
A||-0----0----4----4---|-0----0----4----4---|
E||--------------------|--------------------|
    i    i    i    i     i    i    i    i
G||--------------------|--------------------|
D||-------------2------|-------------2------|
A||-----------4----4---|-----------4----4---|
E||-0----0-------------|-0----0-------------|
    i    i    i    i     i    i    i    i
G||--------------------|--------------------|
D||----------------2---|-4-4--4-4-----------|
A||-----------4--------|-----------4----0---|
E||-2----2-------------|--------------------|
    i    i    i    i     i    i    i    i

G||--------------------|--------------------|
D||-------------2------|-------------2------|
A||-----------4----4---|-----------4----4---|
E||-2----2-------------|-2----2-------------|
    i    i    i    i     i    i    i    i
G||--------------------|--------------------|
D||-------------2------|-------------2------|
A||-0----0----4----4---|-0----0----4----4---|
E||--------------------|--------------------|
    i    i    i    i     i    i    i    i
G||--------------------|--------------------|
D||-------------2------|-------------2------|
A||-----------4----4---|-----------4----4---|
E||-0----0-------------|-0----0-------------|
    i    i    i    i     i    i    i    i
G||--------------------|--------------------|
D||--------------------|--------------------|
A||-4-4--4-4--4-4--4-4-|-4-4--4-4--4-4--4-4-|
E||--------------------|--------------------|
    i    i    i    i     i    i    i    i

G||--------------------|--------------------||  x4
D||--------------------|--------------------||
A||-4------2----2----0-|-0----0-------------||
E||--------------------|-----------2--------||
    i    i    i    i     i    i    i    i

Verse 2

G||--------------------|--------------------||  x7
D||--------------------|--------------------||
A||-4------2----2----0-|-0----0-------------||
E||--------------------|-----------2--------||
    i    i    i    i     i    i    i    i
G||--------------------|--------------------||
D||--------------------|--------------------||
A||-4------2----2------|-0------------------||
E||--------------------|-----------0--------||
    i    i    i    i     i    i    i    i

Chorus 2

G||--------------------|--------------------|
D||-------------2------|-------------2------|
A||-----------4----4---|-----------4----4---|
E||-2----2-------------|-2----2-------------|
    i    i    i    i     i    i    i    i
G||--------------------|--------------------|
D||-------------2------|-------------2------|
A||-0----0----4----4---|-0----0----4----4---|
E||--------------------|--------------------|
    i    i    i    i     i    i    i    i
G||--------------------|--------------------|
D||-------------2------|-------------2------|
A||-----------4----4---|-----------4----4---|
E||-0----0-------------|-0----0-------------|
    i    i    i    i     i    i    i    i
G||--------------------|--------------------|
D||----------------2---|-4-4--4-4-----------|
A||-----------4--------|-----------4----0---|
E||-2----2-------------|--------------------|
    i    i    i    i     i    i    i    i

G||--------------------|--------------------|
D||-------------2------|-------------2------|
A||-----------4----4---|-----------4----4---|
E||-2----2-------------|-2----2-------------|
    i    i    i    i     i    i    i    i
G||--------------------|--------------------|
D||-------------2------|-------------2------|
A||-0----0----4----4---|-0----0----4----4---|
E||--------------------|--------------------|
    i    i    i    i     i    i    i    i
G||--------------------|--------------------|
D||-------------2------|-------------2------|
A||-----------4----4---|-----------4----4---|
E||-0----0-------------|-0----0-------------|
    i    i    i    i     i    i    i    i
G||--------------------|--------------------|
D||--------------------|--------------------|
A||-4----4-4--4-4--4---|-4-4--4-4--4-4--4---|
E||--------------------|--------------------|
    i    i    i    i     i    i    i    i
G||--------------------|--------------------|
D||--------------------|--------------------|
A||-0----0-0----0--0---|-0----0-0----0--0---|
E||--------------------|--------------------|
    i    i    i    i     i    i    i    i
G||--------------------|--------------------|
D||--------------------|--------------------|
A||-7----7-7----7--7---|-7----7-7----7--7---|
E||--------------------|--------------------|
    i    i    i    i     i    i    i    i
G||--------------------|--------------------|
D||--------------------|--------------------|
A||-9-9--9-9--9-9--9-9-|-9-9--9-9--9-9--9-9-|
E||--------------------|--------------------|
    i    i    i    i     i    i    i    i
G||--------------------|--------------------|
D||--------------------|--------------------|
A||-9-9--9-9--9-9--9-9-|-9-9--9-9--9-9--9-9-|
E||--------------------|--------------------|
    i    i    i    i     i    i    i    i

G||--------------------|--------------------|
D||--------------------|--------------------|
A||-0----0-0----0--0---|-0----0-0----0--0---|
E||--------------------|--------------------|
    i    i    i    i     i    i    i    i
G||--------------------|--------------------|
D||--------------------|--------------------|
A||-7----7-7----7--7---|-7----7-7----7--7---|
E||--------------------|--------------------|
    i    i    i    i     i    i    i    i


G||--------------------|--------------------|
D||--------------------|--------------------|
A||--------------------|--------------------|
E||-22-----------------|-22-----------------|
    i    i    i    i     i    i    i    i
G||--------------------|--------------------|
D||--------------------|--------------------|
A||--------------------|--------------------|
E||-22-----------------|-22---------------00|
    i    i    i    i     i    i    i    i
G||--------------------|--------------------|
D||--------------------|--------------------|
A||--------------------|--------------------|
E||-22-----------------|-22-----------------|
    i    i    i    i     i    i    i    i
G||--------------------|--------------------|
D||--------------------|--------------------|
A||--------------------|--------------------|
E||-22-----------------|-22---------------00|
    i    i    i    i     i    i    i    i
G||--------------------|--------------------|
D||--------------------|--------------------|
A||--------------------|--------------------|
E||-2-2--2-2--2-2--2-2-|-2-2--2-2--2-2--2-2-|
    i    i    i    i     i    i    i    i
G||--------------------|--------------------|
D||--------------------|--------------------|
A||--------------------|--------------------|
E||-2-2--2-2--2-2--2-2-|-2-2--2-2--2-2--2-2-|
    i    i    i    i     i    i    i    i
G||--------------------|--------------------|
D||--------------------|--------------------|
A||--------------------|--------------------|
E||-2-2--2-2--2-2--2-2-|-2-2--2-2--2-2--2-2-|
    i    i    i    i     i    i    i    i
G||--------------------|--------------------|
D||--------------------|--------------------|
A||--------------------|--------------------|
E||-2-2--2-2--2-2--2-2-|-2-2--2-2--2-2--2-2-|
    i    i    i    i     i    i    i    i

G||--------------------|--------------------|
D||--------------------|--------------------|
A||/9-9--9-9--9-9--9-9-|--------------------|
E||--------------------|-2------------------|
    i    i    i    i     i    i    i    i

Chorus 3

G||--------------------|--------------------|
D||-------------2------|-------------2------|
A||-0----0----4----4---|-0----0----4----4---|
E||--------------------|--------------------|
    i    i    i    i     i    i    i    i
G||--------------------|--------------------|
D||-------------2------|-------------2------|
A||-----------4----4---|-----------4----4---|
E||-0----0-------------|-0----0-------------|
    i    i    i    i     i    i    i    i
G||--------------------|--------------------|
D||----------------2---|-4-4--4-4-----------|
A||-----------4--------|-----------4----0---|
E||-2----2-------------|--------------------|
    i    i    i    i     i    i    i    i

G||--------------------|--------------------|
D||-------------2------|-------------2------|
A||-----------4----4---|-----------4----4---|
E||-2----2-------------|-2----2-------------|
    i    i    i    i     i    i    i    i
G||--------------------|--------------------|
D||-------------2------|-------------2------|
A||-0----0----4----4---|-0----0----4----4---|
E||--------------------|--------------------|
    i    i    i    i     i    i    i    i
G||--------------------|--------------------|
D||-------------2------|-------------2------|
A||-----------4----4---|-----------4----4---|
E||-0----0-------------|-0----0-------------|
    i    i    i    i     i    i    i    i
G||--------------------|--------------------|
D||--------------------|--------------------|
A||-4-4--4-4--4-4--4-4-|-4--4--4---4----4---|
E||--------------------|--------------------|
    i    i    i    i     i    i    i    i

G||--------------------|--------------------|
D||--------------------|--------------------|
A||--------------------|--------------------|
E||-2------------------|--------------------|
    i    i    i    i     i    i    i    i


Tab by Pedro Zappa
-----------------------------------------------------------------------------
-----------------------------------------------------------------------------


3. Fake Tales Of San Francisco


Intro

G||--------------------|--------------------|
D||--------------------|--------------------|
A||------5----5-7--5---|------5----5-7--5---|
E||-7------7-----------|-7------7-----------|
    i    i    i    i     i    i    i    i
G||--------------------|--------------------|| 
D||--------------------|-------------7------||
A||------5----5-7--5---|------5-7--9----7-5-||
E||-7------7-----------|-7------------------||
    i    i    i    i     i    i    i    i

Verse

G||--------------------|--------------------|
D||--------------------|--------------------|
A||------5----5-7--5---|------5----5-7--5---|
E||-7------7-----------|-7------7-----------|
    i    i    i    i     i    i    i    i
G||--------------------|--------------------||  x4
D||--------------------|-------------7------||
A||------5----5-7--5---|------5-7--9----7-5-||
E||-7------7-----------|-7------------------||
    i    i    i    i     i    i    i    i

Chorus 1

G||--------------------|--------------------|
D||--------------------|--------------------|
A||--------------------|------------------0-|
E||-7------------------|-------------0--2---|
    i    i    i    i     i    i    i    i
G||--------------------|--------------------|
D||--------------------|--------------------|
A||-2------------------|------------------0-|
E||--------------------|-------------0--2---|
    i    i    i    i     i    i    i    i
G||--------------------|--------------------|
D||--------------------|--------------------|
A||-2------------------|------------------0-|
E||--------------------|-------------0--2---|
    i    i    i    i     i    i    i    i
G||--------------------|--------------------|
D||--------------------|--------------------|
A||-2------------------|--------------------|
E||--------------------|--------------------|
    i    i    i    i     i    i    i    i

Verse 2

G||--------------------|--------------------|
D||--------------------|--------------------|
A||------5----5-7--5---|------5----5-7--5---|
E||-7------7-----------|-7------7-----------|
    i    i    i    i     i    i    i    i
G||--------------------|--------------------||  x4
D||--------------------|-------------7------||
A||------5----5-7--5---|------5-7--9----7-5-||
E||-7------7-----------|-7------------------||
    i    i    i    i     i    i    i    i

Chorus 2

G||--------------------|--------------------|
D||--------------------|--------------------|
A||--------------------|------------------0-|
E||-7------------------|-------------0--2---|
    i    i    i    i     i    i    i    i
G||--------------------|--------------------|
D||--------------------|--------------------|
A||-2------------------|------------------0-|
E||--------------------|-------------0--2---|
    i    i    i    i     i    i    i    i
G||--------------------|--------------------|
D||--------------------|--------------------|
A||-2------------------|------------------0-|
E||--------------------|-------------0--2---|
    i    i    i    i     i    i    i    i
G||--------------------|--------------------||
D||--------------------|--------------------||
A||-2------------------|--------------------||
E||--------------------|--------------------||
    i    i    i    i     i    i    i    i


G||--------------------|--------------------|
D||--------------------|--------------------|
A||--------------------|--------------------|
E||-7-7--7-7--7-7--7-7-|-7-7--7-7--7-7--7-7-|
    i    i    i    i     i    i    i    i
G||--------------------|--------------------|
D||--------------------|-9-9--7-7-------7-7-|
A||--------------------|-----------9-9------|
E||-3-3--3-3--3-3--3-3-|--------------------|
    i    i    i    i     i    i    i    i
G||--------------------|--------------------|
D||--------------------|-9-9--7-7-------7-7-|
A||-7-7--7-7--7-7--7-7-|-----------9-9------|
E||--------------------|--------------------|
    i    i    i    i     i    i    i    i
G||--------------------|-----------7-8--9---||   x2
D||-9-9--9-9--9-9--9-9-|-9-9--9-9-----------||
A||--------------------|--------------------||
E||--------------------|--------------------||
    i    i    i    i     i    i    i    i

G||--------------------|--------------------|
D||--------------------|--------------------|
A||--------------------|--------------------|
E||-7-7--7-7--7-7--7-7-|-7-7--7-7--7-7--7-7-|
    i    i    i    i     i    i    i    i
G||--------------------|--------------------|
D||--------------------|-9-9--7-7-------7-7-|
A||--------------------|-----------9-9------|
E||-3-3--3-3--3-3--3-3-|--------------------|
    i    i    i    i     i    i    i    i
G||--------------------|--------------------|
D||--------------------|-9-9--7-7-------7-7-|
A||-7-7--7-7--7-7--7-7-|-----------9-9------|
E||--------------------|--------------------|
    i    i    i    i     i    i    i    i
G||--------------------|--------------------|| 
D||--------------------|--------------------||
A||--------------------|--------------------||
E||-7-7--7-7--7-7--7-7-|-7-7--7-7--7-7--7-7-||
    i    i    i    i     i    i    i    i

G||--------------------|--------------------|
D||--------------------|--------------------|
A||--------------------|--------------------|
E||-7-7--7-7--7-7--7-7-|-7-7--7-7--7-7--7-7-|
    i    i    i    i     i    i    i    i
G||--------------------|--------------------|
D||--------------------|-9-9--7-7-------7-7-|
A||--------------------|-----------9-9------|
E||-3-3--3-3--3-3--3-3-|--------------------|
    i    i    i    i     i    i    i    i
G||--------------------|--------------------|
D||--------------------|-9-9--7-7-------7-7-|
A||-7-7--7-7--7-7--7-7-|-----------9-9------|
E||--------------------|--------------------|
    i    i    i    i     i    i    i    i
G||--------------------|--------------------||-------||
D||--------------------|--------------------||-------||
A||--------------------|--------------------||-------||
E||-3-3--3-3--3-3--3-3-|-3-3--3-3--3-3--3-3-||-7\----||
    i    i    i    i     i    i    i    i

(wait) 

G||--------------------|--------------------|
D||--------------------|--------------------|
A||------5-------------|------5-------------|
E||-7------7-----------|-7------7-----------|
    i    i    i    i     i    i    i    i
G||--------------------|--------------------|-------||
D||--------------------|--------------------|-------||
A||------5-------------|------5-------------|-------||
E||-7------7-----------|-7------7-------5---|-7\----||
    i    i    i    i     i    i    i    i


Tab by Pedro Zappa
-----------------------------------------------------------------------------
-----------------------------------------------------------------------------


4. Dancing Shoes


Verse

G||--------------------|--------------------|
D||--------4-----------|--------4-----------|
A||-------------6--2---|-------------6--2---|
E||-4--4---------------|-4--4---------------|
    i    i    i    i     i    i    i    i
G||--------------------|--------------------||  x4
D||--------------------|--------------------||
A||-4--4---4----6--4---|-7--7---7----9--7---||
E||--------------------|--------------------||
    i    i    i    i     i    i    i    i

Chorus 1

G||--------------------|--------------------||  x4
D||--------------------|--------------------||
A||-----------4----2---|--------------------||
E||-4----2-------------|-4------------------||
    i    i    i    i     i    i    i    i

Verse 2

G||--------------------|--------------------|
D||--------------------|--------------------|
A||--------------------|--------------------|
E||-4--4---4----2--4---|-4--4---4----2--4---|
    i    i    i    i     i    i    i    i
G||--------------------|--------------------||  x4
D||--------------------|--------------------||
A||-4--4---4----6--4---|-7--7---7----9--7---||
E||--------------------|--------------------||
    i    i    i    i     i    i    i    i

Chorus 2

G||--------------------|--------------------||  x4
D||--------------------|--------------------||
A||-----------4----2---|--------------------||
E||-4----2-------------|-4------------------||
    i    i    i    i     i    i    i    i

Solo

G||--------------------|--------------------|
D||--------------------|--------------------|
A||--------------------|--------------------|
E||-4--4---4----2--4---|-4--4---4----2--4---|
    i    i    i    i     i    i    i    i
G||--------------------|--------------------||  x4
D||--------------------|--------------------||
A||-4--4---4----6--4---|-7--7---7----9--7---||
E||--------------------|--------------------||
    i    i    i    i     i    i    i    i

Verse 3

G||--------------------|--------------------|
D||--------------------|--------------------|
A||--------------------|--------------------|
E||-4--4\--------------|-4--4\--------------|
    i    i    i    i     i    i    i    i
G||--------------------|--------------------||
D||--------------------|--------------------||
A||-4--4---4----6--4---|-7--7---7----9--7---||
E||--------------------|--------------------||
    i    i    i    i     i    i    i    i
G||--------------------|--------------------|
D||--------4-----------|--------4-----------|
A||-------------6--2---|-------------6--2---|
E||-4--4---------------|-4--4---------------|
    i    i    i    i     i    i    i    i
G||--------------------|--------------------||
D||--------------------|--------------------||
A||-4--4---4----6--4---|-7--7---7----9--7---||
E||--------------------|--------------------||
    i    i    i    i     i    i    i    i

G||--------------------|--------------------|
D||--------------------|--------------------|
A||--------------------|--------------------|
E||-4----4----4----4---|-4----4----4----4---|
    i    i    i    i     i    i    i    i
G||--------------------|--------------------|
D||--------------------|--------------------|
A||-4----4----4----4---|-7----7----7----7---|
E||--------------------|--------------------|
    i    i    i    i     i    i    i    i
G||--------------------|--------------------|
D||--------------------|--------------------|
A||--------------------|--------------------|
E||-4----4----4----4---|-4----4----4----4---|
    i    i    i    i     i    i    i    i
G||--------------------|--------------------|
D||--------------------|--------------------|
A||-4-4--4-4--4-4--4-4-|-7-7--7-7--7-7--7-7-|
E||--------------------|--------------------|
    i    i    i    i     i    i    i    i

G||--------------------|--------------------||  x2
D||--------------------|--------------------||
A||--------------------|--------------------||
E||-4--4---4----2--4---|-4--4---4----2--4---||
    i    i    i    i     i    i    i    i


Tab by Pedro Zappa
-----------------------------------------------------------------------------
-----------------------------------------------------------------------------


5. You Probably Couldn't See For The Lights But You Were Looking Straight At Me


Intro

G||--------------------|--------------------|
D||--------------------|--------------------|
A||/2-2--2-2--2-2--2-2-|-2-2--2-2--2-2--2-2-|
E||--------------------|--------------------|
    i    i    i    i     i    i    i    i
G||--------------------|--------------------||  x2
D||--------5-----------|--------5-----------||
A||-5-----------4------|-5-----------4------||
E||--------------------|--------------------||
    i    i    i    i     i    i    i    i
G||--------------------|--------------------|
D||--------------------|--------------------|
A||--------2-----------|------0-2-----------|
E||--------------------|--------------------|
    i    i    i    i     i    i    i    i
G||--------------------|--------------------|--------------------||
D||--------------------|--------------------|--------------------||
A||-9-9--9-9--9-9--9-9-|-9------------------|--------------------||
E||--------------------|--------------------|--------------------||
    i    i    i    i     i    i    i    i     i    i    i    i

Verse

G||--------------------|--------------------|
D||------9----7-7------|--------------------|
A||----------------9---|-7----------------5-|
E||-7-7----------------|--------------------|
    i    i    i    i     i    i    i    i
G||--------------------|--------------------||  x4
D||--------------------|------5-------------||
A||-7----7-----------5-|-7---------5----4---||
E||--------------------|--------------------||
    i    i    i    i     i    i    i    i

Chorus

G||--------------------|--------------------|
D||-----------0--------|-2------4------x0---|
A||-2------------------|--------------------|
E||--------------------|--------------------|
    i    i    i    i     i    i    i    i
G||--------------------|--------------------||  x2
D||-----------0----0-0-|-2----2-4------x0---|| 
A||-2----2-2-----------|--------------------||
E||--------------------|--------------------||
    i    i    i    i     i    i    i    i
G||--------------------|--------------------||  x4
D||-----------0----0-0-|-2----2-4------x0---||
A||-2----2-2-----------|--------------------||
E||--------------------|--------------------||
    i    i    i    i     i    i    i    i

G||--------------------|--------------------|
D||--------------------|--------------------|
A||/2-2--2-2--2-2--2-2-|-2-2--2-2--2-2--2-2-|
E||--------------------|--------------------|
    i    i    i    i     i    i    i    i
G||--------------------|--------------------||
D||--------5-----------|--------5-----------||
A||-5-----------4------|-5-----------4------||
E||--------------------|--------------------||
    i    i    i    i     i    i    i    i
G||--------------------|--------------------|
D||--------------------|--------------------|
A||/2-2--2-2--2-2--2-2-|-2-2--2-2--2-2--2-2-|
E||--------------------|--------------------|
    i    i    i    i     i    i    i    i
G||--------------------|--------------------||
D||--------5-----------|--------------------||
A||-5-----------4------|-5------------------||
E||--------------------|--------------------||
    i    i    i    i     i    i    i    i

Verse

(wait)

G||--------------------|--------------------|
D||--------------------|--------------------|
A||-7-7--7-7--7-7--7-7-|-5-5--5-5--5-5--5-5-|
E||--------------------|--------------------|
    i    i    i    i     i    i    i    i
G||--------------------|--------------------||  x3
D||--------------------|-0----2----4----7---||
A||-2-2--2-2--2-2--2-2-|--------------------||
E||--------------------|--------------------||
    i    i    i    i     i    i    i    i
G||--------------------|--------------------|
D||--------------------|--------------------|
A||-7-7--7-7--7-7--7-7-|-5-5--5-5--5-5--5-5-|
E||--------------------|--------------------|
    i    i    i    i     i    i    i    i
G||--------------------|--------------------||  x3
D||--------------------|--------------------||
A||-9-9--9-9--9-9--9-9-|-9-9--9-9--7--5--4--||
E||--------------------|--------------------||
    i    i    i    i     i    i    i    i


G||--------------------|--------------------|
D||--------------------|--------------------|
A||-2------------------|--------------------|
E||--------------------|--------------------|
    i    i    i    i     i    i    i    i
G||--------------------|--------------------|
D||------4-------------|--------------------|
A||-2---------5--------|--------------------|
E||--------------------|--------------------|
    i    i    i    i     i    i    i    i
G||--------------------|--------------------|
D||------4-------------|--------------------|
A||-2---------5--------|-7------9------x5---|
E||--------------------|--------------------|
    i    i    i    i     i    i    i    i
G||--------------------|--------------------|
D||------4-------------|--------------------|
A||-2---------5--------|--------------------|
E||--------------------|--------------------|
    i    i    i    i     i    i    i    i

Outro

G||--------------------|--------------------||  x3
D||-5-5-------4-4------|-----------2-2------||
A||--------------------|-2-2----------------||
E||--------------------|--------------------||
    i    i    i    i     i    i    i    i
G||--------------------|--------------------|
D||--------------------|--------------------|
A||-----------5-5------|--------------------|
E||-3-3----------------|--------------------|
    i    i    i    i     i    i    i    i

(wait)


G||--------------------|--------------------|
D||--------------------|--------------------|
A||/2-2--2-2--2-2--2-2-|-2-2--2-2--2-2--2-2-|
E||--------------------|--------------------|
    i    i    i    i     i    i    i    i
G||--------------------|--------------------|
D||--------------------|--------------------|
A||-5----5----5----5---|-5----5----5----5---|
E||--------------------|--------------------|
    i    i    i    i     i    i    i    i


Tab by Pedro Zappa
-----------------------------------------------------------------------------
-----------------------------------------------------------------------------


6. Still Take You Home


Intro

G||--------------------||
D||--------------------||
A||--------------------||
E||----------------5-6-||
    i    i    i    i    
G||--------------------||  x12
D||--------------------||
A||------5----4--------||
E||---6------------5-6-||
    i    i    i    i  

(wait)

G||--------------------||
D||--------------------||
A||--------------------||
E||----------------1---||
    i    i    i    i    
G||--------------------|--------------------|
D||--------------------|--------------------|
A||-1----1----1-1--1-1-|---1--1-1----1--1---|
E||--------------------|--------------------|
    i    i    i    i     i    i    i    i
G||--------------------|--------------------||  x2
D||--------------------|--------------------||
A||-6----6----6-6--6-6-|-9-9--9-8----8--8-8-||
E||--------------------|--------------------||
    i    i    i    i     i    i    i    i
Verse

G||--------------------|--------------------|
D||--------------------|--------------------|
A||-1----1----1-1--1-1-|---1--1-1----1--1---|
E||--------------------|--------------------|
    i    i    i    i     i    i    i    i
G||--------------------|--------------------||  x4
D||--------------------|--------------------||
A||-6----6----6-6--6-6-|-9-9--9-8----8--8-8-||
E||--------------------|--------------------||
    i    i    i    i     i    i    i    i

Chorus

G||--------------------|--------------------|
D||--------------------|-8------6-----------|
A||-6------6------6----|---------------8----|
E||--------------------|--------------------|
    i    i    i    i     i    i    i    i
G||--------------------|--------------------||
D||--------------------|--------------------||
A||-4------4------4----|-8------6------4----||
E||--------------------|--------------------||
    i    i    i    i     i    i    i    i
G||--------------------|--------------------||  x2
D||--------------------|--------------------||
A||--------------------|--------------------||
E||-1-1--1-1--1-1--1-1-|-1-1--1-1--1-1--1-1-||
    i    i    i    i     i    i    i    i
G||--------------------|--------------------|
D||--------------------|-8------6-----------|
A||-6------6------6----|---------------8----|
E||--------------------|--------------------|
    i    i    i    i     i    i    i    i
G||--------------------|--------------------||
D||--------------------|--------------------||
A||-4------4------4----|-8------6------4----||
E||--------------------|--------------------||
    i    i    i    i     i    i    i    i

Verse 2

(wait)

G||--------------------||
D||--------------------||
A||--------------------||
E||---------------x1---||
    i    i    i    i    
G||--------------------|--------------------|
D||--------------------|--------------------|
A||-1----1----1-1--1-1-|---1--1-1----1--1---|
E||--------------------|--------------------|
    i    i    i    i     i    i    i    i
G||--------------------|--------------------||  x4
D||--------------------|--------------------||
A||-6----6----6-6--6-6-|-9-9--9-8----8--8-8-||
E||--------------------|--------------------||
    i    i    i    i     i    i    i    i

Chorus 2

G||--------------------|--------------------|
D||--------------------|-8------6-----------|
A||-6------6------6----|---------------8----|
E||--------------------|--------------------|
    i    i    i    i     i    i    i    i
G||--------------------|--------------------||
D||--------------------|--------------------||
A||-4------4------4----|-8------6------4----||
E||--------------------|--------------------||
    i    i    i    i     i    i    i    i
G||--------------------|--------------------||  x2
D||--------------------|--------------------||
A||--------------------|--------------------||
E||-1-1--1-1--1-1--1-1-|-1-1--1-1--1-1--1-1-||
    i    i    i    i     i    i    i    i
G||--------------------|--------------------|
D||--------------------|-8------6-----------|
A||-6------6------6----|---------------8----|
E||--------------------|--------------------|
    i    i    i    i     i    i    i    i
G||--------------------|--------------------||
D||--------------------|--------------------||
A||-4------4------4----|-8------6------4----||
E||--------------------|--------------------||
    i    i    i    i     i    i    i    i

Interlude

G||--------------------|--------------------|
D||------------------8-|---8----6-----------|
A||--------------------|-------------8--7---|
E||-6---------6--------|--------------------|
    i    i    i    i     i    i    i    i
G||--------------------|--------------------||  x4
D||--------------------|--------------------||
A||-6---------6------9-|---9----9--9-9--8---||
E||--------------------|--------------------||
    i    i    i    i     i    i    i    i
G||--------------------|--------------------|
D||--------------------|-8------6-----------|
A||-6------------------|---------------8----|
E||--------------------|--------------------|
    i    i    i    i     i    i    i    i
G||--------------------|--------------------||
D||--------------------|--------------------||
A||-4------------------|-8------6------4----||
E||--------------------|--------------------||
    i    i    i    i     i    i    i    i

G||--------------------|--------------------|
D||--------------------|--------------------|
A||--------------------|--------------------|
E||-6-----------4------|-6-----------4------|
    i    i    i    i     i    i    i    i
G||--------------------|--------------------|--------------------|
D||--------------------|-8------6-----------|--------------------|
A||-6------------------|---------------8----|-4------------------|
E||--------------------|--------------------|--------------------|
    i    i    i    i     i    i    i    i

G||--------------------||
D||--------------------||
A||--------------------||
E||----------------5-6-||
    i    i    i    i    
G||--------------------||  x7
D||--------------------||
A||------5----4--------||
E||---6------------5-6-||
    i    i    i    i  
G||--------------------||
D||--------------------||
A||------5----4--------||
E||---6----------------||
    i    i    i    i  

Chorus 2

G||--------------------|--------------------|
D||--------------------|------8----6--------|
A||-6----6----6----6---|-6--------------8---|
E||--------------------|--------------------|
    i    i    i    i     i    i    i    i
G||--------------------|--------------------||
D||--------------------|--------------------||
A||-4----4----4----4---|-4----8----6----4---||
E||--------------------|--------------------||
    i    i    i    i     i    i    i    i
G||--------------------|--------------------||  x2
D||--------------------|--------------------||
A||--------------------|--------------------||
E||-1-1--1-1--1-1--1-1-|-1-1--1-1--1-1--1-1-||
    i    i    i    i     i    i    i    i
G||--------------------|--------------------|
D||--------------------|------8----6--------|
A||-6----6----6----6---|-6--------------8---|
E||--------------------|--------------------|
    i    i    i    i     i    i    i    i
G||--------------------|--------------------||
D||--------------------|--------------------||
A||-4----4----4----4---|-4------------------||
E||--------------------|--------------------||
    i    i    i    i     i    i    i    i

G||--------------------|--------------------|
D||--------------------|--------------------|
A||-1-1--1-1--1-1--1-1-|-1-1--1-1--1-1--1-1-|
E||--------------------|--------------------|
    i    i    i    i     i    i    i    i
G||--------------------|--------------------||  x3
D||--------------------|--------------------||
A||-6-6--6-6--6-6--6-6-|-9-9--9-8--8-8--8-8-||
E||--------------------|--------------------||
    i    i    i    i     i    i    i    i
G||--------------------|--------------------|
D||--------------------|--------------------|
A||-1-1--1-1--1-1--1-1-|-1-1--1-1--1-1--1-1-|
E||--------------------|--------------------|
    i    i    i    i     i    i    i    i
G||--------------------|--------------------||-----| 
D||--------------------|--------------------||-----|
A||-6-6--6-6--6-6--6-6-|-9-9-------8--------||-1---|
E||--------------------|--------------------||-----|
    i    i    i    i     i    i    i    i

Tab by Pedro Zappa
-----------------------------------------------------------------------------
-----------------------------------------------------------------------------


7. Riot Van


Intro

G||--------------------|--------------------||   x4
D||--------------------|--------------------||
A||-5------4-------2---|--------------------||
E||--------------------|--------------------||
    i    i    i    i     i    i    i    i

Verse 1

(wait)

Chorus 1

G||--------------------|--------------------||   x4
D||--------------------|--------------------||
A||-5------4-------2---|--------------------||
E||--------------------|--------------------||
    i    i    i    i     i    i    i    i
 
Verse 2

G||--------------------|--------------------|
D||--------------------|--------------------|
A||-12-----------------|-4----------------3-|
E||--------------------|--------------------|
    i    i    i    i     i    i    i    i
G||--------------------|--------------------||  x2
D||--------------------|--------------------||
A||-2------------------|-7------------------||
E||--------------------|--------------------||
    i    i    i    i     i    i    i    i

Chorus 2

G||--------------------|--------------------||   x4
D||--------------------|--------------------||
A||-5------4-------2---|--------------------||
E||--------------------|--------------------||
    i    i    i    i     i    i    i    i

Solo

G||--------------------|--------------------|
D||--------------------|--------------------|
A||-12-----------------|-4----------------3-|
E||--------------------|--------------------|
    i    i    i    i     i    i    i    i
G||--------------------|--------------------||  x2
D||--------------------|--------------------||
A||-2------2----2--2-2/|-7------------------||
E||--------------------|--------------------||
    i    i    i    i     i    i    i    i

Chorus 3

G||--------------------|--------------------||   x4
D||--------------------|--------------------||
A||-5------4-------2---|--------------------||
E||--------------------|--------------------||
    i    i    i    i     i    i    i    i


Tab by Pedro Zappa
-----------------------------------------------------------------------------
-----------------------------------------------------------------------------


8. Red Light Indicated Doors Are Secured


Intro

G||--------------------||  x4
D||--------4-----------||
A||------4----5---4----||
E||-2-5-------------54-||
    i    i    i    i    

Verse 1

G||--------------------|--------------------|
D||--------------------|--------------------|
A||--------------------|--------------------|
E||-2------------------|-2------------------|
    i    i    i    i     i    i    i    i
G||--------------------|--------------------|
D||--------------------|--------------------|
A||--------------------|--------------------|
E||-2------------------|-2----------------0-|
    i    i    i    i     i    i    i    i
G||--------------------|--------------------|
D||--------------------|--------------------|
A||--------------------|--------------------|
E||-2----------------0-|-2----------------0-|
    i    i    i    i     i    i    i    i
G||--------------------|--------------------||
D||--------------------|--------------------||
A||--------------------|--------------------||
E||-2------------------|-2------------------||
    i    i    i    i     i    i    i    i

G||--------------------||  x3
D||--------4-----------||
A||------4----5---4----||
E||-2-5-------------54-||
    i    i    i    i    
G||--------------------||
D||-----------4--------||
A||------4-------------||
E||-2-5----5-----------||
    i    i    i    i    
G||--------------------||  x4
D||--------4-----------||
A||------4----5---4----||
E||-2-5-------------54-||
    i    i    i    i    

Chorus 1

G||--------------------|--------------------|--------------------|
D||--------------------|--------------------|-----------2-2--3-3-|
A||-2-2--2-2--2-2--2-2-|-0-0--0-0--0-0--0-0-|-2-2--2-2-----------|
E||--------------------|--------------------|--------------------|
    i    i    i    i     i    i    i    i     i    i    i    i

Verse 2

G||--------------------||  x12
D||--------4-----------||
A||------4----5---4----||
E||-2-5-------------54-||
    i    i    i    i    

Chorus 2

G||--------------------|--------------------||  x2
D||--------------------|--------------------||
A||-2-2--2-2--2-2--2-2-|-0-0--0-0--0-0--0-0-||
E||--------------------|--------------------||
    i    i    i    i     i    i    i    i 
G||--------------------|--------------------|--------------------|
D||--------------------|--------------------|-----------2-2--3-3-|
A||-2-2--2-2--2-2--2-2-|-0-0--0-0--0-0--0-0-|-2-2--2-2-----------|
E||--------------------|--------------------|--------------------|
    i    i    i    i     i    i    i    i     i    i    i    i

Solo

G||--------------------||  x3
D||--------4-----------||
A||------4----5---4----||
E||-2-5-------------54-||
    i    i    i    i    
G||--------------------||
D||--------4--4444-4444||
A||------4-------------||
E||-2-5----------------||
    i    i    i    i    
G||--------------------||  x4
D||--------4-----------||
A||------4----5---4----||
E||-2-5-------------54-||
    i    i    i    i    

G||--------------------|--------------------||  x2
D||--------------------|--------------------||
A||-2-2--2-2--2-2--2-2-|-0-0--0-0--0-0--0-0-||
E||--------------------|--------------------||
    i    i    i    i     i    i    i    i 

Chorus 3

G||--------------------|--------------------|--------------------|
D||--------------------|--------------------|-----------2-2--3-3-|
A||-2-2--2-2--2-2--2-2-|-0-0--0-0--0-0--0-0-|-2-2--2-2-----------|
E||--------------------|--------------------|--------------------|
    i    i    i    i     i    i    i    i     i    i    i    i

Verse 2

G||--------------------||  x7
D||--------4-----------||
A||------4----5---4----||
E||-2-5-------------54-||
    i    i    i    i    
G||--------------------||
D||--------------------||
A||--------------------||
E||-2------------------||
    i    i    i    i    


Tab by Pedro Zappa
-----------------------------------------------------------------------------
-----------------------------------------------------------------------------

9. Mardy Bum


Intro

(wait)

G||--------------------|--------------------|
D||----------------4-7-|-4----4---4-4--45-4-|
A||-5----5---5-5--5----|--------------------|
E||--------------------|--------------------|
    i    i    i    i     i    i    i    i
G||--------------------|--------------------|| x2
D||-5----5---4-4--44-5-|-2----2---2-2--2----||
A||--------------------|----------------0-0-||
E||--------------------|--------------------||
    i    i    i    i     i    i    i    i
G||--------------------|
D||--------------------|
A||-5-----------\------|
E||--------------------|
    i    i    i    i  

Verse 1

(wait)

G||--------------------|
D||--------------------|
A||-------------0--3-4-|
E||--------------------|
    i    i    i    i 
G||--------------------|--------------------|
D||----------------4-7-|-4----4---4-4--45-4-|
A||-5----5---5-5--5----|--------------------|
E||--------------------|--------------------|
    i    i    i    i     i    i    i    i
G||--------------------|--------------------||
D||-5----5---4-4--44-5-|-2----2---2-2--27-7-||
A||--------------------|--------------------||
E||--------------------|--------------------||
    i    i    i    i     i    i    i    i

Chorus 1

G||--------------------|--------------------|
D||-5------------------|-7------------------|
A||--------------------|--------------------|
E||--------------------|--------------------|
    i    i    i    i     i    i    i    i
G||--------------------|--------------------|
D||---------7----------|---------4------2---|
A||-5---5--------------|-2---2--------------|
E||--------------------|--------------------|
    i    i    i    i     i    i    i    i
G||--------------------|--------------------|
D||--------------------|--------------------|
A||--------------------|--------------------|
E||-3------------------|-5------------------|
    i    i    i    i     i    i    i    i
G||--------------------|--------------------|
D||--------------------|---------4------2---|
A||-5---5--------------|-2---2--------------|
E||---------5----------|--------------------|
    i    i    i    i     i    i    i    i
G||--------------------|--------------------|
D||--------------------|--------------------|
A||--------------------|--------------------|
E||-3------------------|-5------------------|
    i    i    i    i     i    i    i    i

Verse 2

G||--------------------|--------------------|
D||----------------4-7-|-4----4---4-4--45-4-|
A||-5----5---5-5--5----|--------------------|
E||--------------------|--------------------|
    i    i    i    i     i    i    i    i
G||--------------------|--------------------||  x2
D||-5----5---4-4--44-5-|-2----2---2-2--2----||
A||--------------------|----------------0-0-||
E||--------------------|--------------------||
    i    i    i    i     i    i    i    i
G||--------------------|--------------------|
D||----------------4-7-|-4----4---4-4--45-4-|
A||-5----5---5-5--5----|--------------------|
E||--------------------|--------------------|
    i    i    i    i     i    i    i    i
G||--------------------|--------------------||
D||-5----5---4-4--44-5-|-2----2---2-2--27-7-||
A||--------------------|--------------------||
E||--------------------|--------------------||
    i    i    i    i     i    i    i    i

Chorus 2

G||--------------------|--------------------|
D||-5------------------|-7------------------|
A||--------------------|--------------------|
E||--------------------|--------------------|
    i    i    i    i     i    i    i    i
G||--------------------|--------------------|
D||---------7----------|---------4------2---|
A||-5---5--------------|-2---2--------------|
E||--------------------|--------------------|
    i    i    i    i     i    i    i    i
G||--------------------|--------------------|
D||--------------------|--------------------|
A||--------------------|--------------------|
E||-3------------------|-5------------------|
    i    i    i    i     i    i    i    i
G||--------------------|--------------------|
D||--------------------|---------4------2---|
A||-5---5--------------|-2---2--------------|
E||---------5----------|--------------------|
    i    i    i    i     i    i    i    i
G||--------------------|--------------------|
D||--------------------|--------------------|
A||--------------------|--------------------|
E||-3------------------|-5--------------5\--|
    i    i    i    i     i    i    i    i

Bridge


G||--------------------|--------------------||  x2
D||--------------------|--------------------||
A||----------------2---|-----------2-4--5-4-||
E||-2-2--2-2--2-2----2-|-3-3--3-3-----------||
    i    i    i    i     i    i    i    i
G||--------------------|--------------------|
D||--------------------|------------------4-|
A||----------------2---|-----------2-4--5---|
E||-2-2--2-2--2-2----2-|-3-3--3-3-----------|
    i    i    i    i     i    i    i    i
G||--------------------|--------------------|
D||--------------------|--------------------|
A||----------------2---|--------------------|
E||-2-2--2-2--2-2----2-|-3----3/---5----5---|
    i    i    i    i     i    i    i    i

Solo

G||--------------------|--------------------|
D||----------------4-7-|-4-44-4-44--4--45-4-|
A||-5-55-5-55--5--5----|--------------------|
E||--------------------|--------------------|
    i    i    i    i     i    i    i    i
G||--------------------|--------------------||
D||-5-55-5-54--4--44-5-|-2-22-2-22---2-2----||
A||--------------------|----------------0-0-||
E||--------------------|--------------------||
    i    i    i    i     i    i    i    i

G||--------------------|--------------------|
D||----------------4-7-|-4----4---4-4--45-4-|
A||-5-55-5-55-5555-----|--------------------|
E||--------------------|--------------------|
    i    i    i    i     i    i    i    i
G||--------------------|--------------------||
D||-5-55-5--54-4--44-5-|-2-22-2----2-2------||
A||--------------------|----------------0-0-||
E||--------------------|--------------------||
    i    i    i    i     i    i    i    i

Chorus 3

G||--------------------|--------------------|
D||--------------------|--------------------|
A||--------------------|--------------------|
E||-3------------------|-5------------------|
    i    i    i    i     i    i    i    i
G||--------------------|--------------------|
D||--------------------|--------------------|
A||-5------------------|-----------9----7---|
E||-----------5--------|-7------------------|
    i    i    i    i     i    i    i    i
G||--------------------|--------------------|
D||--------------------|--------------------|
A||--------------------|--------------------|
E||-3------------------|-5------------------|
    i    i    i    i     i    i    i    i
G||--------------------|--------------------|
D||--------------------|--------------------|
A||-5------------------|--------------------|
E||-----------5--------|-7------------------|
    i    i    i    i     i    i    i    i
 
(wait)

G||--------------------|--------------------|
D||--------------------|--------------------|
A||--------------------|--------------------|
E||-3------------------|-5------------------|
    i    i    i    i     i    i    i    i
G||--------------------|
D||--------------------|
A||-5------------------|
E||--------------------|
    i    i    i    i  


Tab by Pedro Zappa
-----------------------------------------------------------------------------
-----------------------------------------------------------------------------


10. Perhaps Vampires Is A Bit Strong But


Intro

G||--------------------|--------------------||  x3
D||--------------------|--------------------||
A||--------------------|-4--4---------------||
E||-2--2------5--5-----|-----------5--5-----||
    i    i    i    i     i    i    i    i
G||--------------------|--------------------||
D||--------------------|--------------------||
A||--------------------|-4--4------3--------||
E||-2--2------5--5-----|--------------------||
    i    i    i    i     i    i    i    i

Verse 1

G||--------------------|--------------------|
D||--------------------|--------------------|
A||--------------------|-4--4---------------|
E||-2--2------5--5-----|-----------5--5-----|
    i    i    i    i     i    i    i    i
G||--------------------|--------------------||  x2
D||--------------------|--------------------||
A||--------------------|-4--4---------------||
E||-2--2------5--5-----|-----------5----5---||
    i    i    i    i     i    i    i    i
G||--------------------|--------------------||  x3
D||--------------------|--------------------||
A||--------------------|-4--4---------------||
E||-2--2------5--5-----|-----------5--5-----||
    i    i    i    i     i    i    i    i
G||--------------------|--------------------||
D||--------------------|--------------------||
A||--------------------|-4--4---------------||
E||-2--2------5--5-----|-----------5----5---||
    i    i    i    i     i    i    i    i

Chorus 1

G||--------------------|--------------------||  x3
D||--------------------|--------------------||
A||-2224-440-----------|--------------------||
E||--------------------|--------------------||
    i    i    i    i     i    i    i    i
G||--------------------|--------------------||
D||--------------------|--------------------||
A||-2224-440-----------|------------/9\-----||
E||--------------------|--------------------||
    i    i    i    i     i    i    i    i

Verse 2

G||--------------------|--------------------|
D||--------------------|--------------------|
A||--------------------|-4--4---------------|
E||-2--2------5--5-----|-----------5--5-----|
    i    i    i    i     i    i    i    i
G||--------------------|--------------------||  x2
D||--------------------|--------------------||
A||--------------------|-4--4---------------||
E||-2--2------5--5-----|-----------5----5---||
    i    i    i    i     i    i    i    i
G||--------------------|--------------------||  x3
D||--------------------|--------------------||
A||--------------------|-4--4---------------||
E||-2--2------5--5-----|-----------5--5-----||
    i    i    i    i     i    i    i    i
G||--------------------|--------------------||
D||--------------------|--------------------||
A||--------------------|-4--4---------------||
E||-2--2------5--5-----|-----------5----5---||
    i    i    i    i     i    i    i    i

Chorus 2

G||--------------------|--------------------||  x8
D||--------------------|--------------------||
A||-2224-440-----------|--------------------||
E||--------------------|--------------------||
    i    i    i    i     i    i    i    i

(wait)

G||--------------------|--------------------|
D||--------------------|--------------------|
A||-10-----------------|--------------------|
E||--------------------|--------------------|
    i    i    i    i     i    i    i    i
G||--------------------|--------------------|
D||--------------------|--------------------|
A||-9------------------|--------------------|
E||--------------------|--------------------|
    i    i    i    i     i    i    i    i
G||--------------------|--------------------||
D||--------------------|--------------------||
A||-10-----------------|--------------------||
E||--------------------|--------------------||
    i    i    i    i     i    i    i    i

G||--------------------||  x10
D||----7--9---10---9-7-||
A||-9------------------||
E||--------------------||
    i    i    i    i 

G||--------------------|--------------------||  x4
D||--------------------|--------------------||
A||-10---10---10---10--|-9----9----9----9---||
E||--------------------|--------------------||
    i    i    i    i     i    i    i    i
G||----------------------------|--------------------||  x3
D||----------------------------|--------------------||
A||-10-10--10-10--10-10--10-10-|-9------------------||
E||----------------------------|--------------------||
    i      i      i      i       i    i    i    i
G||----------------------------||
D||----------------------------||
A||-10-10--10-10--10-10--10-10-||
E||----------------------------||
    i      i      i      i   
G||--------------------||  x10
D||--------------------||
A||-9-9--9-9--9-9--9-9-||
E||--------------------||
    i    i    i    i  

(wait)

G||--------------------|--------------------|
D||--------------------|--------------------|
A||----0--2---3----2-0-|----0--2---3----2-0-|
E||-2------------------|-2------------------|
    i    i    i    i     i    i    i    i
G||--------------------|--------------------|| x2
D||--------------------|-2------------------||
A||----0--2---3----2-0-|----4--2---3----2-0-||
E||-2------------------|--------------------||
    i    i    i    i     i    i    i    i
G||--------------------|--------------------|
D||--------------------|--------------------|
A||----0--2---3--------|----0--2---3--------|
E||-2------------------|-2------------------|
    i    i    i    i     i    i    i    i
G||--------------------|--------------------||
D||--------------------|-2------------------||
A||----0--2---3--------|----4--2---3----2-0-||
E||-2------------------|--------------------||
    i    i    i    i     i    i    i    i
G||--------------------|--------------------|
D||--------------------|--------------------|
A||----0--2---3--------|----0--2---3--/15\--|
E||-2------------------|-2------------------|
    i    i    i    i     i    i    i    i
G||--------------------|--------------------||
D||--------------------|-2------------------||
A||----0--2------------|----4--2---3----2-0-||
E||-2------------------|--------------------||
    i    i    i    i     i    i    i    i

(wait)

G||--------------------|--------------------||
D||--------------------|--------------------||
A||--------------------|-4--4---------------||
E||-2--2------5--5-----|-----------5----5---|| 

Tab by Pedro Zappa
-----------------------------------------------------------------------------
-----------------------------------------------------------------------------


11. When The Sun Goes Down


Intro

(wait)

G||--------------------|--------------------|
D||-6--------------6---|--------------------|
A||--------------------|-6--------------6---|
E||--------------------|--------------------|
    i    i    i    i     i    i    i    i
G||--------------------|--------------------|
D||-6----------------6-|--------------------|
A||--------------------|-6--------------6---|
E||--------------------|--------------------|
    i    i    i    i     i    i    i    i
G||--------------------|--------------------|
D||-6------------------|--------------------|
A||--------------------|-6------------------|
E||--------------------|--------------------|
    i    i    i    i     i    i    i    i
G||--------------------|--------------------||
D||--------------------|--------------------||
A||-4---------6--------|-7---------9--------||
E||--------------------|--------------------||
    i    i    i    i     i    i    i    i

(wait)

G||--------------------|--------------------|| x3
D||--------------------|--------------------||
A||-2------------------|--------------------||
E||--------------------|-------------3---2--||
    i    i    i    i     i    i    i    i
G||--------------------|--------------------|
D||--------------------|--------------------|
A||-2-2-------2-2------|-2-2--2-2-----------|
E||--------------------|-------------3---2--|
    i    i    i    i     i    i    i    i
G||--------------------|--------------------|
D||--------------------|--------------------|
A||-2------------------|------------10\-----|
E||--------------------|--------------------|
    i    i    i    i     i    i    i    i

Verse 1

G||--------------------|--------------------||  x3
D||--------------------|-------0-----2--4---||
A||--------------------|-2--2---------------||
E||-3----3-2----2---2--|--------------------||
    i    i    i    i     i    i    i    i
G||--------------------|--------------------||
D||--------------------|-------4-----2--0---||
A||--------------------|-2--2---------------||
E||-3----3-2----2---2--|--------------------||
    i    i    i    i     i    i    i    i
G||--------------------|--------------------||  x3
D||--------------------|-------0-----2--4---||
A||--------------------|-2--2---------------||
E||-3----3-2----2---2--|--------------------||
    i    i    i    i     i    i    i    i
G||--------------------|--------------------||
D||--------------------|-------4-----2--0---||
A||--------------------|-2--2---------------||
E||-3----3-2----2---2--|--------------------||
    i    i    i    i     i    i    i    i
G||--------------------|--------------------||  x3
D||--------------------|-------0-----2--4---||
A||--------------------|-2--2---------------||
E||-3----3-2----2---2--|--------------------||
    i    i    i    i     i    i    i    i
G||--------------------|--------------------|
D||--------------------|-------4-----2--0---|
A||--------------------|-2--2---------------|
E||-3----3-2----2---2--|--------------------|
    i    i    i    i     i    i    i    i

Chorus 1

G||--------------------|--------------------||  x4
D||-2----2/---4----4---|--------------------||
A||--------------------|-2--2---2----0--2-0-||
E||--------------------|--------------------||
    i    i    i    i     i    i    i    i
G||--------------------|--------------------|
D||--------------------|--------------------|
A||-0------------------|--------------------|
E||--------------------|-2------------------|
    i    i    i    i     i    i    i    i

Verse 2

G||--------------------|--------------------||  x3
D||--------------------|-------0-----2--4---||
A||--------------------|-2--2---------------||
E||-3----3-2----2---2--|--------------------||
    i    i    i    i     i    i    i    i
G||--------------------|--------------------||
D||--------------------|-------4-----2--0---||
A||--------------------|-2--2---------------||
E||-3----3-2----2---2--|--------------------||
    i    i    i    i     i    i    i    i
G||--------------------|--------------------||  x3
D||--------------------|-------0-----2--4---||
A||--------------------|-2--2---------------||
E||-3----3-2----2---2--|--------------------||
    i    i    i    i     i    i    i    i
G||--------------------|--------------------||
D||--------------------|-------4-----2--0---||
A||--------------------|-2--2---------------||
E||-3----3-2----2---2--|--------------------||
    i    i    i    i     i    i    i    i
G||--------------------|--------------------||  x3
D||--------------------|-------0-----2--4---||
A||--------------------|-2--2---------------||
E||-3----3-2----2---2--|--------------------||
    i    i    i    i     i    i    i    i
G||--------------------|--------------------|
D||--------------------|--------------------|
A||--------------------|-2----2----2----2---|
E||-3----3-2----2---2--|--------------------|
    i    i    i    i     i    i    i    i

Chorus 2

G||--------------------|--------------------||  x8
D||-2----2/---4----4---|--------------------||
A||--------------------|-2--2---2----0--2-0-||
E||--------------------|--------------------||
    i    i    i    i     i    i    i    i
G||--------------------|--------------------|--------------------|
D||--------------------|--------------------|--------------------|
A||-0------------------|--------------------|-2------------------|
E||--------------------|-2------------------|--------------------|
    i    i    i    i     i    i    i    i     i    i    i    i


Tab by Pedro Zappa
-----------------------------------------------------------------------------
-----------------------------------------------------------------------------


12. From The Ritz To The Rumble



Verse 1

G||--------------------|--------------------|
D||--------7----9------|--------7----9------|
A||--------------------|--------------------|
E||-7------------------|-7------------------|
    i    i    i    i     i    i    i    i
G||--------------------|--------------------||  x6
D||-------/9----7------|------9---------7---||
A||-5------------------|-7---------5-5------||
E||--------------------|--------------------||
    i    i    i    i     i    i    i    i

Chorus 1

G||--------------------|--------------------|
D||--------------------|-----------7-9--7-9-|
A||-5-7--5-7-------7-9-|-7-9----------------|
E||--------------------|--------------------|
    i    i    i    i     i    i    i    i
G||--------------------|--------------------||  x3
D||--------------------|--------------------||
A||---2--2-2--2-2--2-2-|-2-2--2-2--2-2--2-2-||
E||--------------------|--------------------||
    i    i    i    i     i    i    i    i
G||--------------------|--------------------|
D||--------------------|-----------7-9--7-9-|
A||-5-7--5-7-------7-9-|-7-9----------------|
E||--------------------|--------------------|
    i    i    i    i     i    i    i    i

Verse 2

G||--------------------|--------------------|
D||--------7----9------|--------7----9------|
A||--------------------|--------------------|
E||-7------------------|-7------------------|
    i    i    i    i     i    i    i    i
G||--------------------|--------------------||  x5
D||-------/9----7------|------9---------7---||
A||-5------------------|-7---------5-5------||
E||--------------------|--------------------||
    i    i    i    i     i    i    i    i

Chorus 2

G||--------------------|--------------------|
D||--------------------|-----------7-9--7-9-|
A||-5-7--5-7-------7-9-|-7-9----------------|
E||--------------------|--------------------|
    i    i    i    i     i    i    i    i
G||--------------------|--------------------||  x3
D||--------------------|--------------------||
A||---2--2-2--2-2--2-2-|-2-2--2-2--2-2--2-2-||
E||--------------------|--------------------||
    i    i    i    i     i    i    i    i
G||--------------------|--------------------|
D||--------------------|-----------7-9--7-9-|
A||-5-7--5-7-------7-9-|-7-9----------------|
E||--------------------|--------------------|
    i    i    i    i     i    i    i    i
G||--------------------|--------------------|
D||--------------------|--------------------|
A||--------------------|--------------------|
E||-7------------------|--------------------|
    i    i    i    i     i    i    i    i

Outro

(wait)

G||--------------------|--------------------|
D||--------------------|--------------------|
A||--------------------|--------------------|
E||-7-7--7----7-7--7-7-|-7-7--7-7--7-7--7-7-|
    i    i    i    i     i    i    i    i
G||--------------------|--------------------||  x2
D||--------------------|--------------------||
A||-5-5--5----5-5--5-7-|---7--7-7--x-7--7-5-||
E||--------------------|--------------------||
    i    i    i    i     i    i    i    i

G||--------------------|--------------------|
D||--------------------|--------------------|
A||--------------------|--------------------|
E||-7-7--7-7--7-7--7-7-|-7-7--7-7--7-7--7-7-|
    i    i    i    i     i    i    i    i
G||--------------------|--------------------||  x4
D||--------------------|--------------------||
A||-5-5--5-5--5-5--5-5-|-7-7--7-7--7-7--7-5-||
E||--------------------|--------------------||
    i    i    i    i     i    i    i    i

G||--------------------|--------------------|
D||-9-9--9----9-9--9---|-9-9--9----9-9--9-7-|
A||--------------------|--------------------|
E||--------------------|--------------------|
    i    i    i    i     i    i    i    i
G||--------------------|--------------------||  x2
D||--------------------|------------------7-||
A||-5-5--5----5-5--5---|-7-7--7----7-7--7---||
E||--------------------|--------------------||
    i    i    i    i     i    i    i    i

G||--------------------|--------------------|
D||-9-9--9-9--9-9--9-9-|-9-9--9-9--9-9--9-9-|
A||--------------------|--------------------|
E||--------------------|--------------------|
    i    i    i    i     i    i    i    i
G||--------------------|--------------------|
D||--------------------|------------------7-|
A||-5-5--5-5--5-5--5-5-|-7-7--7-7--7-7--7---|
E||--------------------|--------------------|
    i    i    i    i     i    i    i    i
G||--------------------|--------------------|
D||-9-9--9-9--9-9--9-9-|-9-9--9-9--9-9--9-9-|
A||--------------------|--------------------|
E||--------------------|--------------------|
    i    i    i    i     i    i    i    i
G||--------------------|--------------------|| 
D||--------------------|--------------------||
A||-5-5--5-5--5-5--5-5-|-7-7--7-7--7-7--7---||
E||--------------------|--------------------||
    i    i    i    i     i    i    i    i

G||--------------------|--------------------|
D||--------7----9------|--------7----9------|
A||--------------------|--------------------|
E||-7------------------|-7------------------|
    i    i    i    i     i    i    i    i
G||--------------------|--------------------||
D||-------/9----7------|------9---------7---||
A||-5------------------|-7---------5-5------||
E||--------------------|--------------------||
    i    i    i    i     i    i    i    i

Tab by Pedro Zappa
-----------------------------------------------------------------------------
-----------------------------------------------------------------------------


13. A Certain Romance


Intro

(wait)

G||--------------------|--------------------||  x4
D||--------------------|--------------------||
A||--------------------|--------------------||
E||-7-7--7-7--7-7--7-7-|-7-7--7-7--7-7--7-7-||
    i    i    i    i     i    i    i    i
G||----------------------||  x8
D||----------------------||
A||----------------------||
E||-7--7---7--7\---(0)/--||
    i    i    i    i   
G||--------------------|--------------------|
D||--------------------|--------------------|
A||--------------------|--------------------|
E||-7------------------|--------------------|
    i    i    i    i     i    i    i    i
G||--------------------|--------------------|
D||--------------------|--------------------|
A||--------------------|--------------------|
E||--------------------|--------------------|
    i    i    i    i     i    i    i    i
G||--------------------|--------------------|
D||--------------------|--------------------|
A||-7------------------|--------------------|
E||--------------------|--------------------|
    i    i    i    i     i    i    i    i
G||--------------------|--------------------|
D||--------------------|--------------------|
A||--------------------|--------------------|
E||--------------------|------------------5-|
    i    i    i    i     i    i    i    i

G||--------------------|--------------------|
D||--------------------|--------------------|
A||--------------------|--------------------|
E||-7------------------|--------------------|
    i    i    i    i     i    i    i    i
G||--------------------|--------------------|
D||--------------------|--------------------|
A||--------------------|--------------------|
E||--------------------|---7--7-7--7-7--7-5-|
    i    i    i    i     i    i    i    i
G||--------------------|--------------------|
D||--------------------|--------------------|
A||-7------------------|--------------------|
E||--------------------|--------------------|
    i    i    i    i     i    i    i    i
G||--------------------|--------------------|
D||--------------------|--------------------|
A||--------------------|-------------7--7-7-|
E||--------------------|--------------------|
    i    i    i    i     i    i    i    i

Verse 1

G||--------------------|--------------------|
D||-------------8------|-------------8------|
A||---6----6--9----9---|---6----6--9----9---|
E||-7------------------|-7------------------|
    i    i    i    i     i    i    i    i
G||--------------------|--------------------|
D||-------------8------|-------------8------|
A||---6----6--9----9---|---6----6--9----9---|
E||-7------------------|-7------------------|
    i    i    i    i     i    i    i    i
G||-----------8--------|-----------8--------|
D||---6----6----9----9-|---6----6----9----9-|
A||-7------------------|-7------------------|
E||--------------------|--------------------|
    i    i    i    i     i    i    i    i
G||-----------8--------|--------------------||  x3
D||---6----6----9----9-|---6--6-6--5-5--5-5-||
A||-7------------------|-7------------------||
E||--------------------|--------------------||
    i    i    i    i     i    i    i    i

Chorus 1

G||--------------------|--------------------|
D||-6------6----6--6---|-4------4----4--4---|
A||--------------------|--------------------|
E||--------------------|--------------------|
    i    i    i    i     i    i    i    i
G||--------------------|--------------------|
D||-2------2----2--2-2-|-2------2----2--2---|
A||--------------------|------------------x-|
E||--------------------|--------------------|
    i    i    i    i     i    i    i    i
G||--------------------|--------------------|
D||--------------------|--------------------|
A||-2------2----1----0-|--------------------|
E||--------------------|-4----4-4----4--4-4-|
    i    i    i    i     i    i    i    i
G||--------------------|--------------------|
D||--------------------|--------------------|
A||---4--4-4--4-4--4-4-|--------------------|
E||--------------------|---2--2-2--2-2--2-2-|
    i    i    i    i     i    i    i    i

Verse 2

G||--------------------|--------------------|
D||-------------8------|-------------8------|
A||---6----6--9----9---|---6----6--9----9---|
E||-7------------------|-7------------------|
    i    i    i    i     i    i    i    i
G||--------------------|--------------------|
D||-------------8------|-------------8------|
A||---6----6--9----9---|---6----6--9----9---|
E||-7------------------|-7------------------|
    i    i    i    i     i    i    i    i
G||-----------8--------|-----------8--------|
D||---6----6----9----9-|---6----6----9----9-|
A||-7------------------|-7------------------|
E||--------------------|--------------------|
    i    i    i    i     i    i    i    i
G||-----------8--------|--------------------||  x2
D||---6----6----9----9-|---6--6-6--5-5--5-5-||
A||-7------------------|-7------------------||
E||--------------------|--------------------||
    i    i    i    i     i    i    i    i

Chorus 2

G||--------------------|--------------------|
D||-6------6----6--6---|-4------4----4--4---|
A||--------------------|--------------------|
E||--------------------|--------------------|
    i    i    i    i     i    i    i    i
G||--------------------|--------------------|
D||-2------2----2--2-2-|-2------2----2--2---|
A||--------------------|------------------x-|
E||--------------------|--------------------|
    i    i    i    i     i    i    i    i
G||--------------------|--------------------|
D||--------------------|--------------------|
A||-2------2----1----0-|--------------------|
E||--------------------|-4----4-4----4--4-4-|
    i    i    i    i     i    i    i    i
G||--------------------|--------------------|
D||--------------------|--------------------|
A||---4--4-4--4-4--4-4-|--------------------|
E||--------------------|---2--2-2--2-2--2-2-|
    i    i    i    i     i    i    i    i

G||--------------------|--------------------|
D||-6---6---6-6\-------|-4------4----4--4-4-|
A||--------------------|--------------------|
E||--------------------|--------------------|
    i    i    i    i     i    i    i    i
G||--------------------|--------------------|
D||--------------------|--------------------|
A||-7---7---7-7\-------|-7------7----7--7-7-|
E||--------------------|--------------------|
    i    i    i    i     i    i    i    i
G||--------------------|--------------------|
D||--------------------|--------------------|
A||-2------2----1----0-|--------------------|
E||--------------------|-4----4-4----4--4-4-|
    i    i    i    i     i    i    i    i
G||--------------------|--------------------|
D||--------------------|--------------------|
A||---4--4-4--4-4--4-4-|--------------------|
E||--------------------|---2--2-2--2-2--2-2-|
    i    i    i    i     i    i    i    i

Verse 3

G||--------------------|--------------------|
D||-------------8------|-------------8------|
A||---6----6--9----9---|---6----6--9----9---|
E||-7------------------|-7------------------|
    i    i    i    i     i    i    i    i
G||--------------------|--------------------|
D||-------------8------|-------------8------|
A||---6----6--9----9---|---6----6--9----9---|
E||-7------------------|-7------------------|
    i    i    i    i     i    i    i    i
G||-----------8--------|-----------8--------|
D||---6----6----9----9-|---6----6----9----9-|
A||-7------------------|-7------------------|
E||--------------------|--------------------|
    i    i    i    i     i    i    i    i
G||-----------8--------|--------------------||  x4
D||---6----6----9----9-|---6--6-6--5-5--5-5-||
A||-7------------------|-7------------------||
E||--------------------|--------------------||
    i    i    i    i     i    i    i    i

Outro

G||--------------------|--------------------|
D||--------------------|------8-8-----------|
A||--------------------|-----------9-9--6-6-|
E||-7-7--7-7--7-7--7-7-|-7-7----------------|
    i    i    i    i     i    i    i    i
G||--------------------|--------------------|
D||--------------------|------8-8-----------|
A||--------------------|-----------9-9--6-6-|
E||-7-7--7-7--7-7--7-7-|-7-7----------------|
    i    i    i    i     i    i    i    i
G||--------------------|------8-8-----------|
D||--------------------|-----------9-9--6-6-|
A||-7-7--7-7--7-7--7-7-|-7-7----------------|
E||--------------------|--------------------|
    i    i    i    i     i    i    i    i
G||--------------------|---------------------------||  x4
D||--------------------|---------------------------||
A||-7-7--7-7--7-7--7-7-|-10-10--10-10--10-10--10-0-||
E||--------------------|---------------------------||
    i    i    i    i     i      i      i      i

G||--------------------|--------------------|
D||--------------------|--------------------|
A||--------------------|--------------------|
E||-7------------------|--------------------|
    i    i    i    i     i    i    i    i
G||--------------------|--------------------|
D||--------------------|--------------------|
A||--------------------|--------------------|
E||-7------------------|--------------------|
    i    i    i    i     i    i    i    i
G||--------------------|--------------------|
D||--------------------|--------------------|
A||-7------------------|--------------------|
E||--------------------|--------------------|
    i    i    i    i     i    i    i    i
G||--------------------|--------------------|
D||--------------------|--------------------|
A||-7------------------|------------------7-|
E||--------------------|--------------------|
    i    i    i    i     i    i    i    i

G||--------------------|--------------------|
D||--------------------|--------------------|
A||--------------------|--------------------|
E||-7------------------|--------------------|
    i    i    i    i     i    i    i    i
G||--------------------|--------------------|
D||--------------------|--------------------|
A||--------------------|--------------------|
E||-7------------------|----7--7---7--7--7\-|
    i    i    i    i     i    i    i    i
G||--------------------|--------------------|
D||--------------------|--------------------|
A||--------------------|--------------------|
E||-0------------------|--------------------|
    i    i    i    i     i    i    i    i
G||--------------------|--------------------|-----|
D||--------------------|--------------------|-----|
A||--------------------|--------------------|-----|
E||--------------------|--------------------|-7---|
    i    i    i    i     i    i    i    i


Tab by Pedro Zappa
-----------------------------------------------------------------------------
-----------------------------------------------------------------------------
comments
We did not receive enough feedback on this tab! Please rate:
print report bad tab
1 2 3 4 5
I want to post or [tab]
guest
You may want to rate the tab now too:
select rating
Please do not post tabs as comments. Select "correction" instead!