Oops, an error
Loading. Please wait.

Vectors Tab

7,593 views 96 this week
1 commentread comment
1 2 3 4 5
excellent!
x 10
Autoscroll
+/-
esc
set tempo
stop
Contributor
WARNING: You are trying to view
                                    content from Ultimate-Guitar.com
                                    in an unauthorized application,
                                    which is prohibited.

                                    Please use an official Ultimate
                                    Guitar Tabs application for iPhone,
                                    iPad or Android to access legitimate
                                    chords, guitar, bass, and drum tabs
                                    from Ultimate-Guitar.com database.

                                    Type "ultimate guitar tabs" in Apple
                                    App Store's or Android Market's
                                    search to find the application.
Hey this is my first tab on UT please check out my 'Vectors' Cover also
at youtube.com/VGMTaylor

e|---------------------------------------------------------------|
B|---------------------------------------------------------------|
G|-----2------6--------9--6---------6----------------------------|
D|--s4---4-2----7-6-7-------9--7--9---7-s4-----------------------|
A|---------------------------------------------------------------|
E|---------------------------------------------------------------|

e|-------------------------------------------14-12---------------|
B|-------------------------------------------------10-12---------|
G|-----2------6--------9--6---------6-9--s11---------------------|
D|--s4---4-2----7-6-7-------9--7--9------------------------------|
A|---------------------------------------------------------------|
E|---------------------------------------------------------------|


e|--12--16--12-------------12------------------------------------|
B|-------------10--12--12b----12-10------------------------------|
G|---------------------------------------------------------------|
D|---------------------------------------------------------------|
A|---------------------------------------------------------------|
E|---------------------------------------------------------------|

e|--------------------------------------------------------------------|
B|--------------------------------------------------------------------|
G|-----2------6--------9--6---------6---s11-11-9-9-9--s14-14-11-------|
D|--s4---4-2----7-6-7-------9--7--9----------------------------14-14--|
A|--------------------------------------------------------------------|
E|--------------------------------------------------------------------|

e|----------------------------------------------------------------|
B|----------------------------------------------------------------|
G|----11----------------------------------------------------------|
D|-14----14-11-14-11----------------------------------------------|
A|-------------------14-12-14-12-14-12-14-s16-12------------------|
E|-----------------------------------------------14---------------|

e|---------------------------------------------------------------|
B|---------------------------------------------------------------|
G|---------------------------------------------------------------|
D|---------------------------------------------------------------|
A|-0-2-4---------------------------------------------------------|
E|--------2------------------------------------------------------|

e|---------------------------------------------------------------|
B|---------------------------------------------------------------|
G|---------------------------------------------------------------|
D|-12-12-12--11-11-11--9-9-9--7-7-7--6-6-6--4--------------------|
A|-12-12-12- 11-11-11--9-9-9--7-7-7--6-6-6--4--------------------|
E|-10-10-10--9--9--9---7-7-7--5-5-5--4-4-4--2--------------------|

e|---------------------------------------------------------------|
B|---------------------------------------------------------------|
G|---------------------------------------------------------------|
D|-12-12-12--11-11-11--9-9-9--7-7-7--6-6-6--4--------------------|
A|-12-12-12- 11-11-11--9-9-9--7-7-7--6-6-6--4--------------------|
E|-10-10-10--9--9--9---7-7-7--5-5-5--4-4-4--2--------------------|

e|---------------------------------------------------------------|
B|---------------------------------------------------------------|
G|------------2-------------2-----2--------7-6-4-6---------------|
D|--4-4-4-2-4---4-2-4---2-4---4-2---4-2-4----------7-4-----------|
A|---------------------------------------------------------------|
E|---------------------------------------------------------------|

e|---------------------------------------------------------------|
B|---------------------------------------------------------------|
G|------------2-------------2-----2--------7-6-4-6---------------|
D|--4-4-4-2-4---4-2-4---2-4---4-2---4-2-4----------7-4-----------|
A|---------------------------------------------------------------|
E|---------------------------------------------------------------|

e|---------------------------------------------------|
B|---------------------------------------------------|
G|--7--7--7---7-7--7--7---9-9--9--9--9-9-------------|
D|--7--7--7---7-7--7--7---9-9--9--9--9-9-------------|
A|--5--5--5---5-5--5--5---7-7--7--7--7-7-------------|
E|---------------------------------------------------|

e|-----------------------------------------|
B|-----------------------------------------|
G|--11---11---7-------11--11--7--9---------|
D|--11---11---7---9---11--11--7--9---------|
A|--9----9--- 5---9---9---9---5--7---------|
E|----------------7------------------------|

e|-------------------------------------------------|
B|-------------------------------------------------|
G|--7-7-7-7-7-7-7-14-11-9-9--9--9--9-9-------------|
D|--7-7-7-7-7-7-7-14-11-9-9--9--9--9-9-------------|
A|--5-5-5-5-5-5-5-12-9--7-7--7--7--7-7-------------|
E|-------------------------------------------------|

e|-------------------------------------------------|
B|-------------------------------------------------|
G|--7-7-7-7-7-7-7-14-11-9-9--9--9--6-9-------------|
D|--7-7-7-7-7-7-7-14-11-9-9--9--9--6-9-------------|
A|--5-5-5-5-5-5-5-12-9--7-7--7--7--4-7-------------|
E|-------------------------------------------------|

e|---------------------------------------------------------------|
B|---------------------------------------------------------------|
G|-----2------6--------9--6---------6----------------------------|
D|--s4---4-2----7-6-7-------9--7--9---7-s4-----------------------|
A|---------------------------------------------------------------|
E|---------------------------------------------------------------|

e|--------------------------------------------------------------------|
B|--------------------------------------------------------------------|
G|-----2------6--------9--6---------6---s11-11-9-9-9--s14-14-11-------|
D|--s4---4-2----7-6-7-------9--7--9----s4----------------------14-14--|
A|--------------------------------------------------------------------|
E|--------------------------------------------------------------------|

e|----------------------------------------------------------------|
B|----------------------------------------------------------------|
G|----11----------------------------------------------------------|
D|-14----14-11-14-11----------------------------------------------|
A|-------------------14-12-14-12-14-12-14-s16-12------------------|
E|-----------------------------------------------14---------------|

e|---------------------------------------------------------------|
B|---------------------------------------------------------------|
G|---------------------------------------------------------------|
D|-12-12-12--11-11-11--9-9-9--7-7-7--6-6-6--4--------------------|
A|-12-12-12- 11-11-11--9-9-9--7-7-7--6-6-6--4--------------------|
E|-10-10-10--9--9--9---7-7-7--5-5-5--4-4-4--2--------------------|

e|------------------------------------|
B|------------------------------------|
G|------------7------9----------------|
D|--4--------7-x16-9--X16-------------|
A|--4-X16--5-------7------------------|
E|--2---------------------------------|

e|---------------------------------------------------------------|
B|---------------------------------------------------------------|
G|---------------------------------------------------------------|
D|-12-12-12--11-11-11--9-9-9--7-7-7--6-6-6--4--------------------|
A|-12-12-12- 11-11-11--9-9-9--7-7-7--6-6-6--4--------------------|
E|-10-10-10--9--9--9---7-7-7--5-5-5--4-4-4--2--------------------|

e|---------------------------------------------------------------|
B|---------------------------------------------------------------|
G|------------2-------------2-----2--------7-6-4-6---------------|
D|--4-4-4-2-4---4-2-4---2-4---4-2---4-2-4----------7-4-----------|
A|---------------------------------------------------------------|
E|---------------------------------------------------------------|

e|---------------------------------------------------------------|
B|---------------------------------------------------------------|
G|------------2-------------2-----2--------7-6-4-6---------------|
D|--4-4-4-2-4---4-2-4---2-4---4-2---4-2-4----------7-4-----------|
A|---------------------------------------------------------------|
E|---------------------------------------------------------------|

e|---------------------------------------------------|
B|---------------------------------------------------|
G|--7--7--7---7-7--7--7---9-9--9--9--9-9-------------|
D|--7--7--7---7-7--7--7---9-9--9--9--9-9-------------|
A|--5--5--5---5-5--5--5---7-7--7--7--7-7-------------|
E|---------------------------------------------------|

e|-----------------------------------------|
B|-----------------------------------------|
G|--11---11---7-------11--11--7--9---------|
D|--11---11---7---9---11--11--7--9---------|
A|--9----9--- 5---9---9---9---5--7---------|
E|----------------7------------------------|

e|-------------------------------------------------|
B|-------------------------------------------------|
G|--7-7-7-7-7-7-7-14-11-9-9--9--9--9-9-------------|
D|--7-7-7-7-7-7-7-14-11-9-9--9--9--9-9-------------|
A|--5-5-5-5-5-5-5-12-9--7-7--7--7--7-7-------------|
E|-------------------------------------------------|

e|-------------------------------------------------|
B|-------------------------------------------------|
G|--7-7-7-7-7-7-7-14-11-9-9--9--9--6-9-------------|
D|--7-7-7-7-7-7-7-14-11-9-9--9--9--6-9-------------|
A|--5-5-5-5-5-5-5-12-9--7-7--7--7--4-7-------------|
E|-------------------------------------------------|

e|---------------------------------------------------------------|
B|---------------------------------------------------------------|
G|-----2------6--------9--6---------6----------------------------|
D|--s4---4-2----7-6-7-------9--7--9---7-s4-----------------------|
A|---------------------------------------------------------------|
E|---------------------------------------------------------------|

e|---------------------------------------------------------------|
B|---------------------------------------------------------------|
G|-----2------6--------9--6---------6----------------------------|
D|--s4---4-2----7-6-7-------9--7--9---7-s4-----------------------|
A|---------------------------------------------------------------|
E|---------------------------------------------------------------|

e|---------------------------------------------------------------|
B|---------------------------------------------------------------|
G|-----14------18-----------21-18----------18--------------------|
D|--s16---16-14----19-18-19-------21-19-21---19-16---------------|
A|---------------------------------------------------------------|
E|---------------------------------------------------------------|


e|---------------------------------------------------------------|
B|---------------------------------------------------------------|
G|-----14------18-----------21-18----------18--------------------|
D|--s16---16-14----19-18-19-------21-19-21---19-16---------------|
A|---------------------------------------------------------------|
E|---------------------------------------------------------------|

e|----------------------------------------------------12----- 12--------|
B|---7-7-5-7---5-7-7b-7-5-----------10-9-----10--9-------9-10--- 9-10---|
G|-----------6------------6h-9-6---------9---------9--------------------|
D|----------------------------------------------------------------------|
A|----------------------------------------------------------------------|
E|----------------------------------------------------------------------|

e|-12h-14-12-----12-14-16-17-19-21-------------------------------|
B|---------------------------------------------------------------|
G|---------------------------------------------------------------|
D|---------------------------------------------------------------|
A|---------------------------------------------------------------|
E|---------------------------------------------------------------|

e|------------------------------|
B|------------------------------|
G|----6--4--2-------------------|
D|----6--4--2----4--------------|
A|----4--2--0----4--------------|
E|---------------2--------------|

e|-----------------------------------------|
B|-----------------------------------------|
G|-----------------------------------------|
D|--2-----------------2---2---2-4----------|
A|--2----X16-------4----4---4--------------|
E|--0--------------------------------------|


e|-----------------------------------------|
B|-----------------------------------------|
G|--11---11---7-------11--11--7--9---------|
D|--11---11---7---9---11--11--7--9---------|
A|--9----9--- 5---9---9---9---5--7---------|
E|----------------7------------------------|

e|-----------------------------------------|
B|-----------------------------------------|
G|--11---11---7----------------------------|
D|--11---11---7---9------------------------|
A|--9----9--- 5---9------------------------|
E|----------------7------------------------|

e|---------------------------------------------------------------|
B|---------------------------------------------------------------|
G|---------------------------------------------------------------|
D|---4---------7-------9-------12--------14----------------------|
A|---4---X8----7--x8---9--X8---12--4x----14--4x------------------|
E|---2---------5-------7-------10--------12----------------------|

e|-------------------------------------------------------------------------|
B|-------------------------------------------------------------------------|
G|-------------------------------------------------------------------------|
D|--4---4--4---4--4---4---4-4--4-4--4---4--4-4--4-4---4--4-4--4-4--4-------|
A|--4---4--4---4--4---4---4-4--4-4--4---4--4-4--4-4---4--4-4--4-4--4-------|
E|--2---2--2---2--2---2---2-2--2-2--2---2--2-2--2-2---2--2-2--2-2--2-------|

e|-----------------------------------------------------------------------|
B|--7--7-7--7-7--10---10-10---10-10--12--12--12---12---12---14---17---19-|
G|-----------------------------------------------------------------------|
D|--4--4-4--4-4--7----7--7----7--7---9----9----9---9--9-----11---14---16-|
A|-----------------------------------------------------------------------|
E|-----------------------------------------------------------------------|

e|--------------------------------------------|
B|--------------------------------------------|
G|--------------------------------------------|
D|--------------------------------------------|
A|--5-4--------4------------------------------|
E|-------7-5-7----5--2------------------------|
comments
print report bad tab
1 comment total.
0 reply
TheJesusPanda wrote on January 22 2014, 04:15 pm

really good thanks

I want to post or [tab]
guest
You may want to rate the tab now too:
select rating
Please do not post tabs as comments. Select "correction" instead!