Oops, an error
Loading. Please wait.

To The Grind Tab

ver1
ver1

Whole song

Interactive

More versions @911Tabs.com
171 views 1 this week
no commentswrite comment
1 2 3 4 5
please rate
Autoscroll
+/-
esc
set tempo
stop
Contributor
Tuning
B F# B E G# C#
WARNING: You are trying to view
                                    content from Ultimate-Guitar.com
                                    in an unauthorized application,
                                    which is prohibited.

                                    Please use an official Ultimate
                                    Guitar Tabs application for iPhone,
                                    iPad or Android to access legitimate
                                    chords, guitar, bass, and drum tabs
                                    from Ultimate-Guitar.com database.

                                    Type "ultimate guitar tabs" in Apple
                                    App Store's or Android Market's
                                    search to find the application.
To The Grind
Arise And Ruin
The Final Dawn

Tabbed by: Pete_KC
Email: pete8---@hotmail.com
Tunning: Drop B (B,F#,B,E,G#,C#)

Intro
Gtr 1
|---------------------------|----------------------------|
|---------------------------|----------------------------|
|---------------------------|----------------------------|
|---------------------------|----------------------------|
|---5--5-------------5---6--|--------6---8-------8-6-8---|
|--------0-0-0-0-0-0---0----|--0-0-0---0---0-0-0---------|\
|        - - - - - -   -       - - -   -   - - -           \
|Gtr 2                                                     4X
|---------------------------|----------------------------| /
|---------------------------|----------------------------|/
|---------------------------|----------------------------|
|---------------------------|----------------------------|
|---------------------------|----------------------------|
|---------------------------|----------------------------|

Main Riff (00:12)
Gtr 1
|---------------------------|-------------------------------|  |
|---------------------------|-------------------------------|  |
|---------------------------|-------------------------------|  |
|---------------------------|-------------------------------|  |
|---5--5-------------5---6--|--------6---8-------8-6-8------|  |
|--------0-0-0-0-0-0---0----|--0-0-0---0---0-0-0------------|  |
|        - - - - - -   -       - - -   -   - - -               |
|Gtr 2                                                         |
|---------------------------|-------------------------------|  |
|---------------------------|-------------------------------|  |
|---------------------------|-------------------------------|  |
|---------------------------|-------------------------------|  |
|---9--9-------------9---10-|--------10---12-------12-10-12-|  |
|--------0-0-0-0-0-0---0----|--0-0-0----0----0-0-0----------|  |
         - - - - - -   -       - - -    -    - - -             |
                                                               2X
Gtr 1                                                          |
|---------------------------|----------------------------|     |
|---------------------------|----------------------------|     |
|---------------------------|----------------------------|     |
|---------------------------|----------------------------|     |
|---5--5-------------5---6--|--------6---8-------8-6-8---|     |
|--------0-0-0-0-0-0---0----|--0-0-0---0---0-0-0---------|     |
|        - - - - - -   -       - - -   -   - - -               |
|Gtr 2                                                         |
|---------------------------|----------------------------|     |
|---------------------------|----------------------------|     |
|---------------------------|----------------------------|     |
|---------------------------|----------------------------|     |
|---9--9-------------9---10-|--------10---12-------8-6-8-|     |
|--------0-0-0-0-0-0---0----|--0-0-0----0----0-0-0-------|     |
         - - - - - -   -       - - -    -    - - -

Riff A (00:24)
 Gtr 1
|--------------|--------------------|
|--------------|--------------------|
|--------------|--------------------|
|---0------0---|---0------8--4--7---|
|---0------0---|---0------8--4--7---|
|---0------0---|---0------8--4--7---|
|
|Gtr 2
|--------------|--------------------|
|--------------|--------------------|
|--------------|--------------------|
|---0------0---|---0------8--4--7---|
|---0------0---|---0------8--4--7---|
|---0------0---|---0------8--4--7---|

 Gtr 1
|--------------|---------------------------------|
|--------------|---------------------------------|
|--------------|---------------------------------|
|---0------0---|---------------------------------|
|---0------0---|---5-5-5-8-8-8-7-7-7-4-4-4-------|
|---0------0---|---------------------------------|
|                  - - - - - - - - - - - -                                    
|Gtr 2
|--------------|---------------------------------|
|--------------|---------------------------------|
|--------------|---------------------------------|
|---0------0---|---------------------------------|
|---0------0---|---8-8-8-11-11-11-10-10-10-7-7-7-|
|---0------0---|---------------------------------|
                   - - - - - - - - - - - - - - -                            

Gtr 1
|--------------|--------------------|
|--------------|--------------------|
|--------------|--------------------|
|---0------0---|---0------8--4--7---|
|---0------0---|---0------8--4--7---|
|---0------0---|---0------8--4--7---|
|
|Gtr 2
|--------------|--------------------|
|--------------|--------------------|
|--------------|--------------------|
|---0------0---|---0------8--4--7---|
|---0------0---|---0------8--4--7---|
|---0------0---|---0------8--4--7---|

Gtr 1
|--------------|---------------------------------|
|--------------|---------------------------------|
|--------------|---------------------------------|
|---0------0---|---------------------------------|
|---0------0---|---5-5-5-8-8-8-7-7-7-4-4-4-------|
|---0------0---|---------------------------------|
|                  - - - - - - - - - - - -                                    
|Gtr 2
|--------------|---------------------------------|
|--------------|---------------------------------|
|--------------|---------------------------------|
|---0------0---|---------------------------------|
|---0------0---|---8-8-8-11-11-11-10-10-10-7-7-7-|
|---0------0---|---------------------------------|
                   - - - - - - - - - - - - - - -                            


Gtr 1 & 2 (00:36)
|---------------------------|----------------------------|
|---------------------------|----------------------------|
|---------------------------|----------------------------|
|---------------------------|----------------------------|4X
|---5--5-------------5---6--|--------6---8-------8-6-8---|
|--------0-0-0-0-0-0---0----|--0-0-0---0---0-0-0---------|
         - - - - - -   -       - - -   -   - - -           

 Gtr 1 & 2 (00:49)
|---------------------------|----------------------------|
|---------------------------|----------------------------|
|---------------------------|----------------------------|
|---------------------------|----------------------------|2X
|---5--5-------------5---6--|--------6---3-------3-6-3---|
|--------0-0-0-0-0-0---0----|--0-0-0---0---0-0-0---------|

Gtr 1
|---------------------------|-------------------------------|  
|---------------------------|-------------------------------|  
|---------------------------|-------------------------------|  
|---------------------------|-------------------------------| 
|---5--5-------------5---6--|--------6---8-------8-6-8------| 
|--------0-0-0-0-0-0---0----|--0-0-0---0---0-0-0------------| 
|        - - - - - -   -       - - -   -   - - -               
|Gtr 2                                                         
|---------------------------|-------------------------------|  
|---------------------------|-------------------------------|  
|---------------------------|-------------------------------|  
|---------------------------|-------------------------------|  
|---9--9-------------9---10-|--------10---12-------12-10-12-|  
|--------0-0-0-0-0-0---0----|--0-0-0----0----0-0-0----------|  
         - - - - - -   -       - - -    -    - - -             
                                                               
Gtr 1                                                          
|---------------------------|----------------------------|     
|---------------------------|----------------------------|     
|---------------------------|----------------------------|     
|---------------------------|----------------------------|     
|---5--5-------------5---6--|--------6---8-------8-6-8---|     
|--------0-0-0-0-0-0---0----|--0-0-0---0---0-0-0---------|     
|        - - - - - -   -       - - -   -   - - -               
|Gtr 2                                                         
|---------------------------|----------------------------|     
|---------------------------|----------------------------|     
|---------------------------|----------------------------|     
|---------------------------|----------------------------|     
|---9--9-------------9---10-|--------10---12-------8-6-8-|     
|--------0-0-0-0-0-0---0----|--0-0-0----0----0-0-0-------|     
         - - - - - -   -       - - -    -    - - -

Gtr 1 (01:01)
|--------------|--------------------|
|--------------|--------------------|
|--------------|--------------------|
|---0------0---|---0------8--4--7---|
|---0------0---|---0------8--4--7---|
|---0------0---|---0------8--4--7---|
|
|Gtr 2
|--------------|--------------------|
|--------------|--------------------|
|--------------|--------------------|
|---0------0---|---0------8--4--7---|
|---0------0---|---0------8--4--7---|
|---0------0---|---0------8--4--7---|

 Gtr 1
|--------------|---------------------------------|
|--------------|---------------------------------|
|--------------|---------------------------------|
|---0------0---|---------------------------------|
|---0------0---|---5-5-5-8-8-8-7-7-7-4-4-4-------|
|---0------0---|---------------------------------|
|                  - - - - - - - - - - - -                                    
|Gtr 2
|--------------|---------------------------------|
|--------------|---------------------------------|
|--------------|---------------------------------|
|---0------0---|---------------------------------|
|---0------0---|---8-8-8-11-11-11-10-10-10-7-7-7-|
|---0------0---|---------------------------------|
                   - - - - - - - - - - - - - - -                            

Gtr 1
|--------------|--------------------|
|--------------|--------------------|
|--------------|--------------------|
|---0------0---|---0------8--4--7---|
|---0------0---|---0------8--4--7---|
|---0------0---|---0------8--4--7---|
|                         -  -  -
|Gtr 2
|--------------|--------------------|
|--------------|--------------------|
|--------------|--------------------|
|---0------0---|---0------8--4--7---|
|---0------0---|---0------8--4--7---|
|---0------0---|---0------8--4--7---|
                          -  -  -
Gtr 1 
|--------------|---------------------------------|
|--------------|---------------------------------|
|--------------|---------------------------------|
|---0------0---|---------------------------------|
|---0------0---|---5-5-5-8-8-8-7-7-7-4-4-4-------|
|---0------0---|---------------------------------|
|                  - - - - - - - - - - - -                                    
|Gtr 2
|--------------|---------------------------------|
|--------------|---------------------------------|
|--------------|---------------------------------|
|---0------0---|---------------------------------|
|---0------0---|---8-8-8-11-11-11-10-10-10-7-7-7-|
|---0------0---|---------------------------------|
                   - - - - - - - - - - - - - - -
Gtr 1
|-----------------------------------------|
|-----------------------------------------|
|-----------------------------------------|
|-----------------------------------------|
|---8-8-8-11-11-11-10-10-10-7-7-7---------|
|-----------------------------------------|
|   - - - - - - - - - - - - - - -
|Gtr 2
|-----------------------------------------|
|-----------------------------------------|
|-----------------------------------------|
|-----------------------------------------|
|---11-11-11-14-14-14-13-13-13-10-10-10---|
|-----------------------------------------|
     - - - - - - - - - - - - - - - - -         

Chorus (2X)(01:15)
 Gtr 1
|----------------------------|----------------------------|
|----------------------------|----------------------------|
|----------------------------|----------------------------|
|---0-0-0-0-0-0-0-0-0-0-0-0--|--0-0-0-0-0-0-0-0-0-0-0-0---|
|---0-0-0-0-0-0-0-0-0-0-0-0--|--0-0-0-0-0-0-0-0-0-0-0-0---|
|---0-0-0-0-0-0-0-0-0-0-0-0--|--0-0-0-0-0-0-0-0-0-0-0-0---|
|
|Gtr 2
|----------------------------|----------------------------|
|----------------------------|----------------------------|
|---7-7-7-7-7-7-7-7-7-7-7-7--|--7-7-7-7-7-7-7-7-7-7-7-7---|
|----------------------------|----------------------------|
|---5-5-5-5-5-5-5-5-5-5-5-5--|--5-5-5-5-5-5-5-5-5-5-5-5---|
|----------------------------|----------------------------|

Gtr 1
|----------------------------|----------------------------|
|----------------------------|----------------------------|
|----------------------------|----------------------------|
|---8-8-8-8-8-8-8-8-8-8-8-8--|--8-8-8-8-8-8-8-8-8-8-8-8---|
|---8-8-8-8-8-8-8-8-8-8-8-8--|--8-8-8-8-8-8-8-8-8-8-8-8---|
|---8-8-8-8-8-8-8-8-8-8-8-8--|--8-8-8-8-8-8-8-8-8-8-8-8---|
|
|Gtr 2
|----------------------------|----------------------------|
|----------------------------|----------------------------|
|---6-6-6-6-6-6-6-6-6-6-6-6--|--6-6-6-6-6-6-6-6-6-6-6-6---|
|----------------------------|----------------------------|
|---4-4-4-4-4-4-4-4-4-4-4-4--|--4-4-4-4-4-4-4-4-4-4-4-4---|
|----------------------------|----------------------------|

Gtr 1
|----------------------------|----------------------------|
|----------------------------|----------------------------|
|----------------------------|----------------------------|
|---3-3-3-3-3-3-3-3-3-3-3-3--|--3-3-3-3-3-3-3-3-3-3-3-3---|
|---3-3-3-3-3-3-3-3-3-3-3-3--|--3-3-3-3-3-3-3-3-3-3-3-3---|
|---3-3-3-3-3-3-3-3-3-3-3-3--|--3-3-3-3-3-3-3-3-3-3-3-3---|
|
|Gtr 2
|----------------------------|----------------------------|
|----------------------------|----------------------------|
|---5-5-5-5-5-5-5-5-5-5-5-5--|--5-5-5-5-5-5-5-5-5-5-5-5---|
|----------------------------|----------------------------|
|---3-3-3-3-3-3-3-3-3-3-3-3--|--3-3-3-3-3-3-3-3-3-3-3-3---|
|----------------------------|----------------------------|

Gtr 1
|----------------------------|----------------------------|
|----------------------------|----------------------------|
|----------------------------|----------------------------|
|---7-7-7-7-7-7-7-7-7-7-7-7--|--7-7-7-7-7-7-8-8-8-5-5-5---|
|---7-7-7-7-7-7-7-7-7-7-7-7--|--7-7-7-7-7-7-8-8-8-5-5-5---|
|---7-7-7-7-7-7-7-7-7-7-7-7--|--7-7-7-7-7-7-8-8-8-5-5-5---|
|
|Gtr 2
|----------------------------|----------------------------|
|----------------------------|----------------------------|
|---6-6-6-6-6-6-6-6-6-6-6-6--|--6-6-6-6-6-6-6-6-6-6-6-6---|
|----------------------------|----------------------------|
|---4-4-4-4-4-4-4-4-4-4-4-4--|--4-4-4-4-4-4-4-4-4-4-4-4---|
|----------------------------|----------------------------|

2/4
Gtr 1
|-----------------|
|-----------------|
|-----------------|
|-----------------|
|-----------------|
|-----------------|
|
|Gtr 2
|-----------------|
|-----------------|
|-----------------|
|-----------------|
|---0-0-0-0-0-0---|
|---0-0-0-0-0-0---|
    - - - - - -      

4/4
Breakdown (01:40)
Gtr 1 & 2
|----------------------------|----------------------------|
|----------------------------|----------------------------|
|----------------------------|----------------------------|
|----------------------------|----------------------------|
|---0-0-0-0-0-0-0-0-0-0-0-0--|--0-0-0-0-0-0-0-0-0-0-0-0---|
|---0-0-0-0-0-0-0-0-0-0-0-0--|--0-0-0-0-0-0-0-0-0-0-0-0---|\
|   - - - - - - - - - - - -     - - - - - - - - - - - -     \
|                                                           4X
|----------------------------|----------------------------| / 
|----------------------------|----------------------------|/
|----------------------------|----------------------------|
|----------------------------|----------------------------|
|---0-0-0-0-0-0-0-0-0-0-0-0--|----------------------------|
|---0-0-0-0-0-0-0-0-0-0-0-0--|--2-0-2-0-2b----------------|
    - - - - - - - - - - - -

Repeat Chorus


Solo (02:29)
|---------|------------|---------|------------|
|---------|------------|---------|------------|
|---7~----|--9~--10~---|--6~-----|--7~---9~---|
|---------|------------|---------|------------|
|---------|------------|---------|------------|
|---------|------------|---------|------------|

|--------------------------10-12-13-12-10------|
|-----------------10-12-13----------------13---|
|----------7-9-10------------------------------|
|---7-9-10-------------------------------------|
|----------------------------------------------|
|----------------------------------------------|

|-----------------------|--13-12-10----------12-10-------------|
|---12-10-13-12-13~-----|-----------13-12-10-------13-12-10----|
|-----------------------|-----------------------------------13-|
|-----------------------|--------------------------------------|
|-----------------------|--------------------------------------|
|-----------------------|--------------------------------------|

|---12-10--------------------------------|-------------|
|---------13-12-10----12-10----10--------|-------------|
|------------------13-------13----13-12--|--14~--------|
|----------------------------------------|-------------|
|----------------------------------------|-------------|
|----------------------------------------|-------------|

|---14---------------14---------------------|
|------15----------15---15------------------|
|---------14----14---------14----------14---|
|------------16---------------16-12-16------|3X
|-------------------------------------------|
|-------------------------------------------|

|---17---15---15-17-15--|--14--------|
|-----------------------|------------|
|-----------------------|------------|
|-----------------------|------------|
|-----------------------|------------|
|-----------------------|------------|

    t     t     t     t     t     t     t     t     t     t     t     t
|---22-17-22-14-22-17-22-14-22-17-22-14------------------------------------|
|---------------------------------------21-17-21-14-21-17-21-14-21-17-21-14|
|--------------------------------------------------------------------------|
|--------------------------------------------------------------------------|
|--------------------------------------------------------------------------|
|--------------------------------------------------------------------------|

    t     t     t     t     t     t
|---22-17-22-14-22-17-22-14-22-17-22-14--------|
|---------------------------------------17b----|
|----------------------------------------------|
|----------------------------------------------|
|----------------------------------------------|
|----------------------------------------------|

Repeat Breakdown

END


-  Palm Mute
b  Bend
~  Vibrato
t  Tap
comments
We did not receive enough feedback on this tab! Please rate:
print report bad tab
1 2 3 4 5
I want to post or [tab]
guest
You may want to rate the tab now too:
select rating
Please do not post tabs as comments. Select "correction" instead!