Oops, an error
Loading. Please wait.

I Have Been Right All Along Tab

ver2
ver2

Whole song

More versions @911Tabs.com
582 views 9 this week
no commentswrite comment
1 2 3 4 5
excellent!
x 1
Autoscroll
+/-
esc
set tempo
stop
Contributor
Difficulty
Tuning
intermediate
D A D G B E
Hey! There's an official Ultimate Guitar app which is ideal
for learning songs when you're away from computer. Get the app
WARNING: You are trying to view
                                    content from Ultimate-Guitar.com
                                    in an unauthorized application,
                                    which is prohibited.

                                    Please use an official Ultimate
                                    Guitar Tabs application for iPhone,
                                    iPad or Android to access legitimate
                                    chords, guitar, bass, and drum tabs
                                    from Ultimate-Guitar.com database.

                                    Type "ultimate guitar tabs" in Apple
                                    App Store's or Android Market's
                                    search to find the application.
Tabbed by: Joshua Garcia (joshuag523@aol.com)

Tabs for the song: I Have Been Right All Along by Armor For Sleep
Please rate and let me know if you have any corrections. Thank you.


My favorite song from their second album. I just learned it and tabbed it. Easy stuff.
R.I.P. AFS! You will be missed by many. =(


Tuning: Drop D (D A D G B E)


Intro
Guitar 1:
E||--------------------------------|
B||------------7-----7-------7-----|
G||----------------------4-4---4---| x4
D||--7p5--7p5------0---------------|
A||--------------------------------|
D||--------------------------------|
       .    .


Guitar 2:
E||---------|
B||---------|
G||---------|
D||--x-x-x--|
A||--x-x-x--|
D||--x-x-x--|



Verse
Guitar 1:
E||--------------------------------|
B||------------7-----7-------7-----|
G||----------------------4-4---4---| x8
D||--7p5--7p5------0---------------|
A||--------------------------------|
D||--------------------------------|
       .    .


Guitar 2:
E||-----------------------------------------------|
B||-----------------------------------------------|
G||-----------------------------------------------|
D||--2--22--222-5--55--555-4--44--444-4--44--444--|
A||--2--22--222-5--55--555-4--44--444-4--44--444--|
D||--2--22--222-5--55--555-4--44--444-4--44--444--|


E||-------------------------------------------------|
B||-------------------------------------------------|
G||-------------------------------------------------|
D||--2--22--222-5--55--555-4--44--444-4--44--x-x-x--|
A||--2--22--222-5--55--555-4--44--444-4--44--x-x-x--|
D||--2--22--222-5--55--555-4--44--444-4--44--x-x-x--|


E||-----------------------------------------------|
B||-----------------------------------------------|
G||-----------------------------------------------| x2
D||--2--22--222-5--55--555-4--44--444-4--44--444--|
A||--2--22--222-5--55--555-4--44--444-4--44--444--|
D||--2--22--222-5--55--555-4--44--444-4--44--444--|



Pre-Chorus
Guitar 1:
E||---------------|----------------|
B||---------------|----------------|
G||---------------|----------------|
D||--------5-4----|---------5-4----|
A||--2h4h5--------|--2h4h5---------|
D||------------5--|-------------2--|


E||---------------|---------------|
B||---------------|---------------|
G||---------------|---------------|
D||--------5-4----|---------5-4---|
A||--2h4h5--------|--2h4h5--------|
D||------------5--|---------------|


Guitar 1/2:
E||-----------|
B||-----------|
G||-----------|
D||--22222-0--|
A||--22222-0--|
D||--22222-0--|



Chorus
Guitar 1:
E||----------------------------------------|------------------------------------|
B||----------------------------------------|------------------------------------|
G||--11b12r11---11b12r11---11b12r11--9--7--|--11b12r11---11b12r11---9/11--9--7--|
D||----------------------------------------|------------------------x-x---x--x--|
A||----------------------------------------|------------------------7/9---7--5--|
D||----------------------------------------|------------------------------------|


E||----------------------------------------|----------------------------------------|
B||----------------------------------------|----------------------------------------|
G||--11b12r11---11b12r11---11b12r11--9--7--|--11b12r11---11b12r11---11b12r11--9--7--|
D||----------------------------------------|----------------------------------------|
A||----------------------------------------|----------------------------------------|
D||----------------------------------------|----------------------------------------|


E||----------------------------------------|------------------------------------|
B||----------------------------------------|------------------------------------|
G||--11b12r11---11b12r11---11b12r11--9--7--|--11b12r11---11b12r11---9/11--9--7--|
D||----------------------------------------|------------------------x-x---x--x--|
A||----------------------------------------|------------------------7/9---7--5--|
D||----------------------------------------|------------------------------------|


E||----------------------------------------|------------------------------------|
B||----------------------------------------|------------------------------------|
G||--11b12r11---11b12r11---11b12r11--9--7--|--11b12r11---11b12r11---9/11--9--7--|
D||----------------------------------------|------------------------x-x---x--x--|
A||----------------------------------------|------------------------7/9---7--5--|
D||----------------------------------------|------------------------------------|


Guitar 2:
E||-------------------------------------------|
B||-------------------------------------------|
G||------------------------------9/11--9--7---|
D||--9-99-999-999-99---9-99-999--x-x---x--x---|
A||--9-99-999-999-99---9-99-999--7/9---7--5---|
D||--9-99-999-999-99---9-99-999---------------|


E||---------------------------------------|
B||---------------------------------------|
G||---------------------------------------|
D||--5-55-555-555-55---8-88-888-888-888---|
A||--5-55-555-555-55---8-88-888-888-888---|
D||--5-55-555-555-55---8-88-888-888-888---|


E||-------------------------------------------|
B||-------------------------------------------|
G||------------------------------9/11--9--7---|
D||--9-99-999-999-99---9-99-999--x-x---x--x---|
A||--9-99-999-999-99---9-99-999--7/9---7--5---|
D||--9-99-999-999-99---9-99-999---------------|


E||-------------------------------------------|
B||-------------------------------------------|
G||------------------------------9/11--9--7---|
D||--5-55-555-555-55---8-88-888--x-x---x--x---|
A||--5-55-555-555-55---8-88-888--7/9---7--5---|
D||--5-55-555-555-55---8-88-888---------------|



Verse
Guitar 2:
E||-----------------------------------------------|
B||-----------------------------------------------|
G||-----------------------------------------------|
D||--2--22--222-5--55--555-4--44--444-4--44--444--|
A||--2--22--222-5--55--555-4--44--444-4--44--444--|
D||--2--22--222-5--55--555-4--44--444-4--44--444--|


E||-------------------------------------------------|
B||-------------------------------------------------|
G||-------------------------------------------------|
D||--2--22--222-5--55--555-4--44--444-4--44--x-x-x--|
A||--2--22--222-5--55--555-4--44--444-4--44--x-x-x--|
D||--2--22--222-5--55--555-4--44--444-4--44--x-x-x--|


Guitar 1:
E||--------------------------------|
B||------------7-----7-------7-----|
G||----------------------4-4---4---| x4
D||--7p5--7p5------0---------------|
A||--------------------------------|
D||--------------------------------|
       .    .

E||-----------------------------------------------|
B||-----------------------------------------------|
G||-----------------------------------------------| x2
D||--2--22--222-5--55--555-4--44--444-4--44--444--|
A||--2--22--222-5--55--555-4--44--444-4--44--444--|
D||--2--22--222-5--55--555-4--44--444-4--44--444--|



Pre-Chorus
Guitar 1:
E||---------------|----------------|
B||---------------|----------------|
G||---------------|----------------|
D||--------5-4----|---------5-4----|
A||--2h4h5--------|--2h4h5---------|
D||------------5--|-------------2--|


E||---------------|---------------|
B||---------------|---------------|
G||---------------|---------------|
D||--------5-4----|---------5-4---|
A||--2h4h5--------|--2h4h5--------|
D||------------5--|---------------|


Guitar 1/2:
E||-----------|
B||-----------|
G||-----------|
D||--22222-0--|
A||--22222-0--|
D||--22222-0--|



Chorus
Guitar 1:
E||----------------------------------------|------------------------------------|
B||----------------------------------------|------------------------------------|
G||--11b12r11---11b12r11---11b12r11--9--7--|--11b12r11---11b12r11---9/11--9--7--|
D||----------------------------------------|------------------------x-x---x--x--|
A||----------------------------------------|------------------------7/9---7--5--|
D||----------------------------------------|------------------------------------|


E||----------------------------------------|----------------------------------------|
B||----------------------------------------|----------------------------------------|
G||--11b12r11---11b12r11---11b12r11--9--7--|--11b12r11---11b12r11---11b12r11--9--7--|
D||----------------------------------------|----------------------------------------|
A||----------------------------------------|----------------------------------------|
D||----------------------------------------|----------------------------------------|


E||----------------------------------------|------------------------------------|
B||----------------------------------------|------------------------------------|
G||--11b12r11---11b12r11---11b12r11--9--7--|--11b12r11---11b12r11---9/11--9--7--|
D||----------------------------------------|------------------------x-x---x--x--|
A||----------------------------------------|------------------------7/9---7--5--|
D||----------------------------------------|------------------------------------|


E||----------------------------------------|------------------------------------|
B||----------------------------------------|------------------------------------|
G||--11b12r11---11b12r11---11b12r11--9--7--|--11b12r11---11b12r11---9/11--9--7--|
D||----------------------------------------|------------------------x-x---x--x--|
A||----------------------------------------|------------------------7/9---7--5--|
D||----------------------------------------|------------------------------------|


Guitar 2:
E||-------------------------------------------|
B||-------------------------------------------|
G||------------------------------9/11--9--7---|
D||--9-99-999-999-99---9-99-999--x-x---x--x---|
A||--9-99-999-999-99---9-99-999--7/9---7--5---|
D||--9-99-999-999-99---9-99-999---------------|


E||---------------------------------------|
B||---------------------------------------|
G||---------------------------------------|
D||--5-55-555-555-55---8-88-888-888-888---|
A||--5-55-555-555-55---8-88-888-888-888---|
D||--5-55-555-555-55---8-88-888-888-888---|


E||-------------------------------------------|
B||-------------------------------------------|
G||------------------------------9/11--9--7---|
D||--9-99-999-999-99---9-99-999--x-x---x--x---|
A||--9-99-999-999-99---9-99-999--7/9---7--5---|
D||--9-99-999-999-99---9-99-999---------------|


E||---------------------------------------|
B||---------------------------------------|
G||---------------------------------------|
D||--5-55-555-555-55---8-88-888-888-888---|
A||--5-55-555-555-55---8-88-888-888-888---|
D||--5-55-555-555-55---8-88-888-888-888---|



Interlude
Guitar 1/2:
E||-----------------------------------------------------------|
B||-----------------------------------------------------------|
G||-----------------------------------------------------------|
D||-7-77-777-777-777--5-55-555-555-555--7-77-777-777-77-x-5~--|
A||-7-77-777-777-777--5-55-555-555-555--7-77-777-777-77-x-5~--|
D||-7-77-777-777-777--5-55-555-555-555--7-77-777-777-77-x-5~--|



Bridge
Guitar 1:
E||----------------------------------------------|--------------------------------------------|
B||----------------------------------------------|--------------------------------------------|
G||----------------------------------------------|--------------------------------------------|
D||----4-----------------------------------------|----4--------------------------------x-x-x--|
A||-------2--0---------------9--b10r9------------|-------2--0---------------9--b10r9---x-x-x--|
D||-2--------------5--/--9--------------9-7---\--|-2--------------5--/--9--------------x-x-x--|


Guitar 1/2:
E||-----------------------------------------------|----------------------------------------------|
B||-----------------------------------------------|----------------------------------------------|
G||-----------------------------------------------|----------------------------------------------|
D||----4------------------------------------------|----4--------------------------------x--x--x--|
A||-------2--0--x-x------------9--b10r9-----------|-------2--0---------------9--b10r9---x--x--x--|
D||-2-----------x-x-5--/--9--------------9-7---\--|-2--------------5--/--9--------------x--x--x--|


E||-------------|
B||-------------|
G||-------------|
D||----4--------|
A||-------2--0--|
D||-2-----------|


Guitar 1:
E||------------------|
B||--------8------8--|
G||--/11-----11------|
D||------------------|
A||------------------|
D||------------------|



Chorus/Outro
Guitar 1:
E||----------------------------------------|------------------------------------|
B||----------------------------------------|------------------------------------|
G||--11b12r11---11b12r11---11b12r11--9--7--|--11b12r11---11b12r11---9/11--9--7--|
D||----------------------------------------|------------------------x-x---x--x--|
A||----------------------------------------|------------------------7/9---7--5--|
D||----------------------------------------|------------------------------------|


E||----------------------------------------|----------------------------------------|
B||----------------------------------------|----------------------------------------|
G||--11b12r11---11b12r11---11b12r11--9--7--|--11b12r11---11b12r11---11b12r11--9--7--|
D||----------------------------------------|----------------------------------------|
A||----------------------------------------|----------------------------------------|
D||----------------------------------------|----------------------------------------|


E||----------------------------------------|------------------------------------|
B||----------------------------------------|------------------------------------|
G||--11b12r11---11b12r11---11b12r11--9--7--|--11b12r11---11b12r11---9/11--9--7--|
D||----------------------------------------|------------------------x-x---x--x--|
A||----------------------------------------|------------------------7/9---7--5--|
D||----------------------------------------|------------------------------------|


E||----------------------------------------|------------------------------------------|
B||----------------------------------------|------------------------------------------|
G||--11b12r11---11b12r11---11b12r11--9--7--|--11b12r11---11b12r11---9/11-11-9--7-7-7--| x2
D||----------------------------------------|------------------------x-x--x--x--x-x-x--|
A||----------------------------------------|------------------------7/9--9--7--5-5-5--|
D||----------------------------------------|------------------------------------------|


E||-----|
B||-----|
G||--4~-|
D||--x--|
A||--2~-|
D||-----|


Guitar 2:
E||-------------------------------------------|
B||-------------------------------------------|
G||------------------------------9/11--9--7---|
D||--9-99-999-999-99---9-99-999--x-x---x--x---|
A||--9-99-999-999-99---9-99-999--7/9---7--5---|
D||--9-99-999-999-99---9-99-999---------------|


E||---------------------------------------|
B||---------------------------------------|
G||---------------------------------------|
D||--5-55-555-555-55---8-88-888-888-888---|
A||--5-55-555-555-55---8-88-888-888-888---|
D||--5-55-555-555-55---8-88-888-888-888---|


E||-------------------------------------------|
B||-------------------------------------------|
G||------------------------------9/11--9--7---|
D||--9-99-999-999-99---9-99-999--x-x---x--x---|
A||--9-99-999-999-99---9-99-999--7/9---7--5---|
D||--9-99-999-999-99---9-99-999---------------|


E||------------------------------------------------|
B||------------------------------------------------|
G||------------------------------9/11-11-9--7-7-7--| x2
D||--5-55-555-555-55---8-88-888--x-x--x--x--x-x-x--|
A||--5-55-555-555-55---8-88-888--7/9--9--7--5-5-5--|
D||--5-55-555-555-55---8-88-888--------------------|


E||-------|
B||-------|
G||-------|
D||---9~--|
A||---9~--|
D||---9~--|




Tablature Legend
----------------
 h   hammer-on
 p   pull-off
 b   bend
 pb  pre-bend
 r   release bend
 ~   hold / vibrato
 .   palm mute
 /   slide up
 \   slide down
 *   pinch harmonic
 '   natural harmonic
 x   mute note
 T   tap
comments
We did not receive enough feedback on this tab! Please rate:
print report bad tab
1 2 3 4 5
I want to post or [tab]
guest
You may want to rate the tab now too:
select rating
Please do not post tabs as comments. Select "correction" instead!