Oops, an error
Loading. Please wait.

Wanderers Guild Tab

ver3
ver3

Whole song

Interactive

More versions @911Tabs.com
1,033 views 1 this week
no commentswrite comment
1 2 3 4 5
excellent!
x 2
Autoscroll
+/-
esc
set tempo
stop
Contributor
Tuning
D A D G B E
Hey! There's an official Ultimate Guitar app which is ideal
for learning songs when you're away from computer. Get the app
WARNING: You are trying to view
                                    content from Ultimate-Guitar.com
                                    in an unauthorized application,
                                    which is prohibited.

                                    Please use an official Ultimate
                                    Guitar Tabs application for iPhone,
                                    iPad or Android to access legitimate
                                    chords, guitar, bass, and drum tabs
                                    from Ultimate-Guitar.com database.

                                    Type "ultimate guitar tabs" in Apple
                                    App Store's or Android Market's
                                    search to find the application.
#----------------------------------PLEASE NOTE---------------------------------#
#This file is the author's own work and represents their interpretation of the #
#song. You may only use this file for private study, scholarship, or research. #
#------------------------------------------------------------------------------#

THE WANDERER'S GUILD
As recorded by Armor For Sleep
(From the 2003 Album DREAM TO MAKE BELIEVE)

Transcribed by Ryan Thomas
        

Words by Ben Jorgensen Music by Armor For Sleep
Arranged by Armor For Sleep

Gtr I (D A D G B E) - 'Untitled'
Gtr II (D A D G B E) - 'Untitled'
Gtr III (D A D G B E) - 'Untitled'
Gtr IV (D A D G B E) - 'Untitled'

 Intro
  Q=165
  (Em/A)     (G/C)                     (Gadd11/F)
 4/4
  Gtr I
  E E E Q.    E  E    E Q.   +H         E  E E Q  Q.       E  E E Q  Q.
|------------------|-----------------|------------------|------------------|
|------------------|----0----(0)-----|---------0--------|------------0-----|
|-------0----------|-----------------|------------5-----|---------5--------|
|-----9------------|-12--------------|-------5----------|-------5----------|
|---7-----------10-|-----------------|-----3------------|-----3------------|
|-7----------10----|-----------------|--3---------------|--3---------------|
|
| Gtr II
| W                   H       Q   Q     H.           Q    +W
|------------------|-----------------|-10------------3--|-(3)--------------|
|------------------|-----------------|------------------|------------------|
|------------------|--------------9--|------------------|------------------|
|------------------|---------10------|------------------|------------------|
|------------------|-----------------|------------------|------------------|
|------------------|-----------------|------------------|------------------|


  C
  E E E Q.      E  E    E Q.     +H
|--------------------|---------------------|
|--------------------|----0------(0)-------|
|-------0------------|---------------------|
|-----9--------------|-12------------------|
|---7-------------10-|---------------------|
|-7------------10----|---------------------|
|
| E E E E  E E  E  E    E E  E E  E  E E E
|-0---0----0----0----|--0----0----0----0---|
|-5---5----5----5----|--5----5----5----5---|
|-5---5----5----5----|--5----5----5----5---|
|--------------------|---------------------|
|--------------------|---------------------|
|--------------------|---------------------|


                                 Gtr III
  E E E Q   Q.       E E E Q   E  Q
|------------------|-------------------|
|-------0----------|-----------0-------|
|-----------5------|-------5-----------|
|-----5------------|-----5-------------|
|---3--------------|---3---------14\---|
|-3----------------|-3-----------14\---|
|
| E E E E E E  E E   E E E E E E  E  E
|-0---0---0----0---|-0---0---0----0----|
|-5---5---5----5---|-5---5---5----5----|
|-5---5---5----5---|-5---5---5----5----|
|------------------|-------------------|
|------------------|-------------------|
|------------------|-------------------|


    A5          C5
    Gtr III
    E E E E E E  Q     +E   E  E +E   E  E  E  E
||------------------|----------------------------|
||o-----------------|----------------------------|
||--4S5-5-7-7-7--9--|--(9)--9--9-(9)--9--9--9--9-|
||--x-x-x-x-x-x--x--|--(x)--x--x-(x)--x--x--x--x-|
||o-2S3-3-5-5-5--7--|--(7)--7--7-(7)--7--7--7--7-|
||------------------|----------------------------|
|
|   Gtr IV
|   E E E E E E  Q     +E   E  E  E   E  E  E  E
||------------------|----------------------------|
||o-----------------|----------------------------|
||------------------|----------------------------|
||--7-7-7-7-7---10--|-(10)-10-10-10--10-10-10-10-|
||o-7-7-7-7-7---10--|-(10)-10-10-10--10-10-10-10-|
||--7-7-7-7-7---10--|-(10)-10-10-10--10-10-10-10-|


  F5
   E  E  E  E E  E  E  E    E  E E E E E E E
|------------------------|---------------------||
|------------------------|--------------------o||
|-12-12-12-12-x-10-10-10-|-10-10-x-9-9-9-9-9---||
|--x--x--x--x-x--x--x--x-|--x--x-x-x-x-x-x-x---||
|-10-10-10-10-x--8--8--8-|--8--8-x-7-7-7-7-7--o||
|------------------------|---------------------||
|
|  E  E  E  E E  E  E  E    E  E E E E E E E
|------------------------|---------------------||
|------------------------|--------------------o||
|------------------------|---------------------||
|--3--3--3--3-x--3--3--3-|--3--3-x-3-3-3-3-3---||
|--3--3--3--3-x--3--3--3-|--3--3-x-3-3-3-3-3--o||
|--3--3--3--3-x--3--3--3-|--3--3-x-3-3-3-3-3---||


   1st Verse
    C
    Gtr I
     E E  E Q.       E  E    E Q.      +H            E E  E Q    Q.
||------------------------|-----------------------|----------------------|
||o-----------------------|----0-------(0)--------|---------0------------|
||----------0-------------|-----------------------|--------------5-------|
||--------9---------------|-12--------------------|-------5--------------|
||o----7---------------10-|-----------------------|----3-----------------|
||---7--------------10----|-----------------------|--3-------------------|
|
|   Gtr II
|    E E  E E   E E  E  E    E E   E E  E  E  E E    E E  E E  E E   E E
||---0----0-----0----0----|--0-----0----0-----0---|--0----0----0-----0---|
||o--8----8-----8----8----|--8-----8----8-----8---|--8----8----8-----8---|
||---9----9-----9----9----|--9-----9----9-----9---|--9----9----9-----9---|
||--10---10----10---10----|-10----10---10----10---|-10---10---10----10---|
||o-----------------------|-----------------------|----------------------|
||------------------------|-----------------------|----------------------|


  1.,2.,3.                 4.
                                          Gtr III
   E E  E Q    Q.       4x  E E  E Q    E  E   E
|-----------------------||--------------------------|
|--------------0-------o||--------------0-----------|
|---------5-------------||---------5----------------|
|-------5---------------||-------5------------|
|----3-----------------o||----3---------------|
|--3--------------------||--3-----------------------|
|
|  E E  E E  E E   E E  4x  E E  E E  E E  E   E
|--0----0----0-----0----||--0----0----0----0--------|
|--8----8----8-----8---o||--8----8----8----8--------|
|--9----9----9-----9----||--9----9----9----9--------|
|-10---10---10----10----||-10---10---10---10--------|
|----------------------o||--------------------------|
|-----------------------||--------------------------|


   "You should be..."
    Q=160                                1.               2.
    $
    C5         G5         E5
    Gtrs III, IV
    W          W          E E E E H      E E E E H        E E E E Q   E   E
||-----------|----------|--------------|---------------||----------------------|
||o----------|----------|--------------|--------------o||----------------------|
||--5--------|----------|--------------|---------------||----------------------|
||--5--------|-5--------|-2-2-x-2-2----|-2-2-x-2-2-----||-2-2-x-2-2------------|
||o-3--------|-5--------|-2-2-x-2-2----|-2-2-x-2-2----o||-2-2-x-2-2------|
||-----------|-5--------|-2-2-x-2-2----|-2-2-x-2-2-----||-2-2-x-2-2------|


 "Listen I'm fine now..."
  Q=165
  $$
  A5                                           G5
  Gtr I
   E  E  Q   E  E  E  E    +E   E  Q   E  E  E  E
|-----------------------|-------------------------|
|-10--------10-------10-|-(10)--------10-------10-|
|----12--------12-------|------12--------12-------|
|-------10--------10----|---------10--------10----|
|-----------------------|-------------------------|
|-----------------------|-------------------------|
|
| Gtr IV
|  Q     Q   E  E  E  E    +E   E  Q   E  E  E  E
|-----------------------|-------------------------|
|-----------------------|-------------------------|
|-----------------------|-------------------------|
|--7-----7---7--7--7--7-|--(7)--7--7---7--7--7--5-|
|--7-----7---7--7--7--7-|--(7)--7--7---7--7--7--5-|
|--7-----7---7--7--7--7-|--(7)--7--7---7--7--7--5-|


                       F5
   +E   E  Q   E  E  E  E    +E   E  Q   E  E  E  E
|-------------------------|-------------------------|
|-(10)--------10-------10-|-(10)--------10-------10-|
|------12--------12-------|------12--------12-------|
|---------10--------10----|---------10--------10----|
|-------------------------|-------------------------|
|-------------------------|-------------------------|
|
|  +E   E  Q   E  E  E  E    +E   E  Q   E  E  E  E
|-------------------------|-------------------------|
|-------------------------|-------------------------|
|-------------------------|-------------------------|
|--(5)--5--5---5--5--5--3-|--(3)--3--3---3--3--3--3-|
|--(5)--5--5---5--5--5--3-|--(3)--3--3---3--3--3--3-|
|--(5)--5--5---5--5--5--3-|--(3)--3--3---3--3--3--3-|


  A5                                             G5
   +E   E  Q   E  E  E  E    +E   E  Q   E  E  E  E
|-------------------------|-------------------------|
|-(10)--------10-------10-|-(10)--------10-------10-|
|------12--------12-------|------12--------12-------|
|---------10--------10----|---------10--------10----|
|-------------------------|-------------------------|
|-------------------------|-------------------------|
|
|   Q      Q   E  E  E  E    +E   E  Q   E  E  E  E
|-------------------------|-------------------------|
|-------------------------|-------------------------|
|-------------------------|-------------------------|
|---7------7---7--7--7--7-|--(7)--7--7---7--7--7--5-|
|---7------7---7--7--7--7-|--(7)--7--7---7--7--7--5-|
|---7------7---7--7--7--7-|--(7)--7--7---7--7--7--5-|


                       F5
   +E   E  Q   E  E  E  E    +E   E  Q   E  E  Q
|-------------------------|------------------------|
|-(10)--------10-------10-|-(10)--------10---------|
|------12--------12-------|------12--------12------|
|---------10--------10----|---------10--------10---|
|-------------------------|------------------------|
|-------------------------|------------------------|
|
|  +E   E  Q   E  E  E  E    +E   E  Q   E  E  E E
|-------------------------|------------------------|
|-------------------------|------------------------|
|-------------------------|------------------------|
|--(5)--5--5---5--5--5--3-|--(3)--3--3---3--3--3-3-|
|--(5)--5--5---5--5--5--3-|--(3)--3--3---3--3--3-3-|
|--(5)--5--5---5--5--5--3-|--(3)--3--3---3--3--3-3-|


   "I don't want to..."
    D5
    Gtr III
     E Q  E E  E  E E   +E  E E E E E E E
||--------------------|-------------------|
||o-------------------|-------------------|
||--10-9--9-x-10-10-9-|-(9)-9-x-9-9-9-9-9-|
||---x-x--x-x--x--x-x-|-(x)-x-x-x-x-x-x-x-|
||o--8-7--7-x--8--8-7-|-(7)-7-x-7-7-7-7-7-|
||--------------------|-------------------|
|
|    E Q  Q    E  E E   +E  Q   E E E E E
||--------------------|-------------------|
||o-------------------|-------------------|
||--------------------|-------------------|
||---0-0--0----0--0-0-|-(0)-0---0-0-0-0-0-|
||o--0-0--0----0--0-0-|-(0)-0---0-0-0-0-0-|
||---0-0--0----0--0-0-|-(0)-0---0-0-0-0-0-|


                              To Coda
                              To Coda
  G5            F5
  Q   E E E E E E   +E  E Q  E E E E
|-----------------|--------------------||
|-----------------|-------------------o||
|-9---9-9-9-x-9-5-|-(5)-5-5--5-5-5-5---||
|-x---x-x-x-x-x-x-|-(x)-x-x--x-x-x-x---||
|-7---7-7-7-x-7-3-|-(3)-3-3--3-3-3-3--o||
|-----------------|--------------------||
|
| E E E E Q   E E   +E  E Q  E E E E
|-----------------|--------------------||
|-----------------|-------------------o||
|-----------------|--------------------||
|-5-5-5-5-5---5-3-|-(3)-3-3--3-3-3-3---||
|-5-5-5-5-5---5-3-|-(3)-3-3--3-3-3-3--o||
|-5-5-5-5-5---5-3-|-(3)-3-3--3-3-3-3---||


   Post-Chorus
    A5          C5
    Gtr III
    E E E E E E  Q     +E   E  Q     E  E  E  E
||------------------|---------------------------|
||o-----------------|---------------------------|
||--4S5-5-7-7-7--9--|--(9)--9--9-----9--9--9--9-|
||--x-x-x-x-x-x--x--|--(x)--x--x-----x--x--x--x-|
||o-2S3-3-5-5-5--7--|--(7)--7--7-----7--7--7--7-|
||------------------|---------------------------|
|
|   Gtr IV
|   E E E E E E  Q     +E   E  E  E  E  E  E  E
||------------------|---------------------------|
||o-----------------|---------------------------|
||------------------|---------------------------|
||--7-7-7-7-7---10--|-(10)-10-10-10-10-10-10-10-|
||o-7-7-7-7-7---10--|-(10)-10-10-10-10-10-10-10-|
||--7-7-7-7-7---10--|-(10)-10-10-10-10-10-10-10-|


  F5
   E  E  E  E E  E  E  E    E  E E E E E E E
|------------------------|---------------------||
|------------------------|--------------------o||
|-12-12-12-12-x-10-10-10-|-10-10-x-9-9-9-9-9---||
|--x--x--x--x-x--x--x--x-|--x--x-x-x-x-x-x-x---||
|-10-10-10-10-x--8--8--8-|--8--8-x-7-7-7-7-7--o||
|------------------------|---------------------||
|
|  E  E  E  E E  E  E  E    E  E E E E E E E
|------------------------|---------------------||
|------------------------|--------------------o||
|------------------------|---------------------||
|--3--3--3--3-x--3--3--3-|--3--3-x-3-3-3-3-3---||
|--3--3--3--3-x--3--3--3-|--3--3-x-3-3-3-3-3--o||
|--3--3--3--3-x--3--3--3-|--3--3-x-3-3-3-3-3---||


 2nd Verse
  (Em/A)     (G/C)                     (Gadd11/F)
  Gtr I
  E E E Q.    E  E    E  Q.   +H        E  E E Q  Q.      E  E E Q  Q.
|------------------|-----------------|-----------------|-----------------|
|------------------|-----0----(0)----|---------0-------|------------0----|
|-------0----------|-----------------|------------5----|---------5-------|
|-----9------------|-12--------------|-------5---------|-------5---------|
|---7-----------10-|-----------------|-----3-----------|-----3-----------|
|-7----------10----|-----------------|--3--------------|--3--------------|
|
| >
| W                  +W                +W                +W
|------------------|-----------------|-----------------|-----------------|
|------------------|-----------------|-----------------|-----------------|
|-9----------------|-(9)-------------|-(9)-------------|-(9)-------------|
|-x----------------|-(x)-------------|-(x)-------------|-(x)-------------|
|-7----------------|-(7)-------------|-(7)-------------|-(7)-------------|
|------------------|-----------------|-----------------|-----------------|


  (Em/A)     (G/C)                    (Gadd11/F)
  E E E Q.    E  E    E Q.   +H       E E E Q  Q.     E E E Q  Q.
|------------------|----------------|---------------|---------------|
|------------------|----0----(0)----|-------0-------|----------0----|
|-------0----------|----------------|----------5----|-------5-------|
|-----9------------|-12-------------|-----5---------|-----5---------|
|---7-----------10-|----------------|---3-----------|---3-----------|
|-7----------10----|----------------|-3-------------|-3-------------|
|
| W                   W               W               W
|------------------|----------------|---------------|---------------|
|------------------|----------------|---------------|---------------|
|------------------|----------------|---------------|---------------|
|------------------|----------------|---------------|---------------|
|------------------|----------------|---------------|---------------|
|------------------|----------------|---------------|---------------|


    C
     E E  E Q.       E  E    E Q.      +H            E E  E Q    Q.
||------------------------|-----------------------|----------------------|
||o-----------------------|----0-------(0)--------|---------0------------|
||----------0-------------|-----------------------|--------------5-------|
||--------9---------------|-12--------------------|-------5--------------|
||o----7---------------10-|-----------------------|----3-----------------|
||---7--------------10----|-----------------------|--3-------------------|
|
|   Gtr II
|    E E  E E   E E  E  E    E E   E E  E  E  E E    E E  E E  E E   E E
||---0----0-----0----0----|--0-----0----0-----0---|--0----0----0-----0---|
||o--8----8-----8----8----|--8-----8----8-----8---|--8----8----8-----8---|
||---9----9-----9----9----|--9-----9----9-----9---|--9----9----9-----9---|
||--10---10----10---10----|-10----10---10----10---|-10---10---10----10---|
||o-----------------------|-----------------------|----------------------|
||------------------------|-----------------------|----------------------|


  1.                       2.
                                      D.S. al Coda
                                              Gtr III
   E E  E Q    Q.           E E  E Q    E  E   E
|-----------------------||--------------------------|
|--------------0-------o||--------------0-----------|
|---------5-------------||---------5----------------|
|-------5---------------||-------5------------|
|----3-----------------o||----3---------------|
|--3--------------------||--3-----------------------|
|
|  E E  E E  E E   E E      E E  E E  E E  E   E
|--0----0----0-----0----||--0----0----0----0--------|
|--8----8----8-----8---o||--8----8----8----8--------|
|--9----9----9-----9----||--9----9----9----9--------|
|-10---10---10----10----||-10---10---10---10--------|
|----------------------o||--------------------------|
|-----------------------||--------------------------|


 Interlude
  &
  (Em/A)                                                N.C.
  Gtr I
  E E E Q  Q  E   +W            E  E E Q  Q  E   +H     H
|---------------|------------|-----------------|-------------|
|---------------|------------|-----------------|-------------|
|-------0-------|------------|---------0-------|-------------|
|-----9----9----|------------|-------9----9----|-------------|
|---7---------7-|-(7)--------|-----7---------7-|-(7)---------|
|-7-------------|------------|--7--------------|--------2----|
|
| Gtr IV
| >
| W               +W           +W                +W
|---------------|------------|-----------------|-------------|
|---------------|------------|-----------------|-------------|
|---------------|------------|-----------------|-------------|
|-7-------------|-(7)--------|-(7)-------------|-(7)---------|
|-7-------------|-(7)--------|-(7)-------------|-(7)---------|
|-7-------------|-(7)--------|-(7)-------------|-(7)---------|


  N.C.
  E E E E E E E E   +W           E E E E E E E E   +W
|-----------------|------------|-----------------|--------|
|-----------------|------------|-----------------|--------|
|---------4h5p4---|------------|---------4h5p4---|--------|
|-----5---------5-|-(5)--------|-----5---------5-|-(5)----|
|-------3---------|------------|-------3---------|--------|
|-2s3-------------|------------|-2s3-------------|--------|
|
| W                  W           W                  W
|-----------------|------------|-----------------|--------|
|-----------------|------------|-----------------|--------|
|-----------------|------------|-----------------|--------|
|-----------------|------------|-----------------|--------|
|-----------------|------------|-----------------|--------|
|-----------------|------------|-----------------|--------|


  (Em/A)                                              N.C.
  E E E Q  Q  E   +W           E E E Q  Q  E   +H     H
|---------------|------------|---------------|-------------|
|---------------|------------|---------------|-------------|
|-------0-------|------------|-------0-------|-------------|
|-----9----9----|------------|-----9----9----|-------------|
|---7---------7-|-(7)--------|---7---------7-|-(7)---------|
|-7-------------|------------|-7-------------|--------2----|
|
| W                W           W                W
|---------------|------------|---------------|-------------|
|---------------|------------|---------------|-------------|
|---------------|------------|---------------|-------------|
|---------------|------------|---------------|-------------|
|---------------|------------|---------------|-------------|
|---------------|------------|---------------|-------------|


  N.C.                                                 F5
                                                       Gtr III
                                                       PM------|
  E E E E E E E E   +W           E E E E E E E E   +E  E E E E E E E
|-----------------|------------|-----------------|-------------------|
|-----------------|------------|-----------------|-------------------|
|---------4h5p4---|------------|---------4h5p4---|-------------------|
|-----5---------5-|-(5)--------|-----5---------5-|-(5)-----------3---|
|-------3---------|------------|-------3---------|---------3-3-3-3---|
|-2s3-------------|------------|-2s3-------------|-----3-3-3-3-3-3---|
|
|                                                      PM------|
| W                  W           W                  E  E E E E E E E
|-----------------|------------|-----------------|-------------------|
|-----------------|------------|-----------------|-------------------|
|-----------------|------------|-----------------|-------------------|
|-----------------|------------|-----------------|---------------3---|
|-----------------|------------|-----------------|---------3-3-3-3---|
|-----------------|------------|-----------------|-----3-3-3-3-3-3---|


   "Air conditioning..."
    A5                                              E5
    Gtr III
    H.      E E   +W           H.      E E   +H     H
||--------------|------------|-------------|-------------|
||o-------------|------------|-------------|-------------|
||--9-------9-9-|-(9)--------|-9-------9-9-|-(9)----4----|
||--x-------x-x-|-(x)--------|-x-------x-x-|-(x)----x----|
||o-7-------7-7-|-(7)--------|-7-------7-7-|-(7)----2----|
||--------------|------------|-------------|-------------|
|
|   Gtr IV
|   H.      E E   +W           H.      E E   +H     H
||--------------|------------|-------------|-------------|
||o-------------|------------|-------------|-------------|
||--------------|------------|-------------|-------------|
||--7-------7-7-|-(7)--------|-7-------7-7-|-(7)----2----|
||o-7-------7-7-|-(7)--------|-7-------7-7-|-(7)----2----|
||--7-------7-7-|-(7)--------|-7-------7-7-|-(7)----2----|


                               D.S.S. al Dbl. Coda
  F5         C5/F               F5      C5/F
  E E +H     E E   +W           H.      E E   +W
|----------------|------------|-------------|----------||
|----------------|------------|-------------|---------o||
|-4s5-(5)----5-5-|-(5)--------|-5-------5-5-|-(5)------||
|-x-x-(x)----x-x-|-(x)--------|-x-------x-x-|-(x)------||
|-2s3-(3)----3-3-|-(3)--------|-3-------3-3-|-(3)-----o||
|----------------|------------|-------------|----------||
|
| H.         E E   +W           H.      E E   +W
|----------------|------------|-------------|----------||
|----------------|------------|-------------|---------o||
|------------5-5-|-(5)--------|---------5-5-|-(5)------||
|-3----------5-5-|-(5)--------|-3-------5-5-|-(5)------||
|-3----------3-3-|-(3)--------|-3-------3-3-|-(3)-----o||
|-3----------3-3-|-(3)--------|-3-------3-3-|-(3)------||


 Out-Chorus
  &&
  A5                                           G5
  Gtr I
   E  E  Q   E  E  E  E    +E   E  Q   E  E  E  E
|-----------------------|-------------------------|
|-10--------10-------10-|-(10)--------10-------10-|
|----12--------12-------|------12--------12-------|
|-------10--------10----|---------10--------10----|
|-----------------------|-------------------------|
|-----------------------|-------------------------|
|
| Gtr IV
|  Q     Q   E  E  E  E    +E   E  Q   E  E  E  E
|-----------------------|-------------------------|
|-----------------------|-------------------------|
|-----------------------|-------------------------|
|--7-----7---7--7--7--7-|--(7)--7--7---7--7--7--5-|
|--7-----7---7--7--7--7-|--(7)--7--7---7--7--7--5-|
|--7-----7---7--7--7--7-|--(7)--7--7---7--7--7--5-|


                       F5
   +E   E  Q   E  E  E  E    +E   E  Q   E  E  E  E
|-------------------------|-------------------------|
|-(10)--------10-------10-|-(10)--------10-------10-|
|------12--------12-------|------12--------12-------|
|---------10--------10----|---------10--------10----|
|-------------------------|-------------------------|
|-------------------------|-------------------------|
|
|  +E   E  Q   E  E  E  E    +E   E  Q   E  E  E  E
|-------------------------|-------------------------|
|-------------------------|-------------------------|
|-------------------------|-------------------------|
|--(5)--5--5---5--5--5--3-|--(3)--3--3---3--3--3--3-|
|--(5)--5--5---5--5--5--3-|--(3)--3--3---3--3--3--3-|
|--(5)--5--5---5--5--5--3-|--(3)--3--3---3--3--3--3-|


  A5                                             G5
   +E   E  Q   E  E  E  E    +E   E  Q   E  E  E  E
|-------------------------|-------------------------|
|-(10)--------10-------10-|-(10)--------10-------10-|
|------12--------12-------|------12--------12-------|
|---------10--------10----|---------10--------10----|
|-------------------------|-------------------------|
|-------------------------|-------------------------|
|
|   Q      Q   E  E  E  E    +E   E  Q   E  E  E  E
|-------------------------|-------------------------|
|-------------------------|-------------------------|
|-------------------------|-------------------------|
|---7------7---7--7--7--7-|--(7)--7--7---7--7--7--5-|
|---7------7---7--7--7--7-|--(7)--7--7---7--7--7--5-|
|---7------7---7--7--7--7-|--(7)--7--7---7--7--7--5-|


                       F5
   +E   E  Q   E  E  E  E    +E   E  Q   E  E  Q
|-------------------------|------------------------|
|-(10)--------10-------10-|-(10)--------10---------|
|------12--------12-------|------12--------12------|
|---------10--------10----|---------10--------10---|
|-------------------------|------------------------|
|-------------------------|------------------------|
|
|  +E   E  Q   E  E  E  E    +E   E  Q   E  E  E E
|-------------------------|------------------------|
|-------------------------|------------------------|
|-------------------------|------------------------|
|--(5)--5--5---5--5--5--3-|--(3)--3--3---3--3--3-3-|
|--(5)--5--5---5--5--5--3-|--(3)--3--3---3--3--3-3-|
|--(5)--5--5---5--5--5--3-|--(3)--3--3---3--3--3-3-|


    D5
    Gtr III
     E Q  E E  E  E E   +E  E E E E E E E
||--------------------|-------------------|
||o-------------------|-------------------|
||--10-9--9-x-10-10-9-|-(9)-9-x-9-9-9-9-9-|
||---x-x--x-x--x--x-x-|-(x)-x-x-x-x-x-x-x-|
||o--8-7--7-x--8--8-7-|-(7)-7-x-7-7-7-7-7-|
||--------------------|-------------------|
|
|    E Q  Q    E  E E   +E  Q   E E E E E
||--------------------|-------------------|
||o-------------------|-------------------|
||--------------------|-------------------|
||---0-0--0----0--0-0-|-(0)-0---0-0-0-0-0-|
||o--0-0--0----0--0-0-|-(0)-0---0-0-0-0-0-|
||---0-0--0----0--0-0-|-(0)-0---0-0-0-0-0-|


  G5            F5
  Q   E E E E E E   +E  E Q  E E E E
|-----------------|--------------------||
|-----------------|-------------------o||
|-9---9-9-9-x-9-5-|-(5)-5-5--5-5-5-5---||
|-x---x-x-x-x-x-x-|-(x)-x-x--x-x-x-x---||
|-7---7-7-7-x-7-3-|-(3)-3-3--3-3-3-3--o||
|-----------------|--------------------||
|
| E E E E Q   E E   +E  E Q  E E E E
|-----------------|--------------------||
|-----------------|-------------------o||
|-----------------|--------------------||
|-5-5-5-5-5---5-3-|-(3)-3-3--3-3-3-3---||
|-5-5-5-5-5---5-3-|-(3)-3-3--3-3-3-3--o||
|-5-5-5-5-5---5-3-|-(3)-3-3--3-3-3-3---||


 Outro
  A5             E5  F5
                      >
   E  E  E  E  E E E  E    +W            +W            +W            +W
|-----------------------|-------------|-------------|-------------|---------*|
|-----------------------|-------------|-------------|-------------|---------*|
|-14-14-14-14-14-9---10-|-(10)--------|-(10)--------|-(10)--------|-(10)----*|
|--x--x--x--x--x-x----x-|--(x)--------|--(x)--------|--(x)--------|--(x)----*|
|-12-12-12-12-12-7----8-|--(8)--------|--(8)--------|--(8)--------|--(8)----*|
|-----------------------|-------------|-------------|-------------|---------*|
|
|                     >
|  E  E  E  E  E E E  E    +W            +W            +W            +W
|-----------------------|-------------|-------------|-------------|---------*|
|-----------------------|-------------|-------------|-------------|---------*|
|-----------------------|-------------|-------------|-------------|---------*|
|--7--7--7--7--7-2----3-|--(3)--------|--(3)--------|--(3)--------|--(3)----*|
|--7--7--7--7--7-2----3-|--(3)--------|--(3)--------|--(3)--------|--(3)----*|
|--7--7--7--7--7-2----3-|--(3)--------|--(3)--------|--(3)--------|--(3)----*|



Duration Legend
---------------
W - whole; H - half; Q - quarter; E - 8th; S - 16th; T - 32nd; X - 64th; a - acciaccatura
+ - note tied to previous; . - note dotted; .. - note double dotted
Uncapitalized letters represent notes that are staccato (1/2 duration)
Irregular groupings are notated above the duration line
Duration letters will always appear directly above the note/fret number it represents the
duration for.  Duration letters with no fret number below them represent rests.  Multi-
bar rests are notated in the form Wxn, where n is the number of bars to rest for.  Low
melody durations appear below the staff

Tablature Legend
----------------
 h   - hammer-on
 p   - pull-off
 b   - bend
 pb  - pre-bend
 r   - bend release (if no number after the r, then release immediately)
 /\  - slide into or out of (from/to "nowhere")
 s   - legato slide
 S   - shift slide
 - natural harmonic
[n]  - artificial harmonic
n(n) - tapped harmonic
 ~   - vibrato
 tr  - trill
 T   - tap
 TP  - trem. picking
 PM  - palm muting
\n/  - tremolo bar dip; n = amount to dip
 \n  - tremolo bar down
 n/  - tremolo bar up
/n\  - tremolo bar inverted dip
 =   - hold bend; also acts as connecting device for hammers/pulls
 <> - volume swell (louder/softer)
 x   - on rhythm slash represents muted slash
 o   - on rhythm slash represents single note slash

Misc Legend
-----------
 |  - bar
||  - double bar
||o - repeat start
o|| - repeat end
*|  - double bar (ending)
 :  - bar (freetime)
 $  - Segno
 &  - Coda
Tempo markers -  = BPM(8/16=s8/s16), where s8 = swing 8ths, s16 = swing 16ths

comments
We did not receive enough feedback on this tab! Please rate:
print report bad tab
1 2 3 4 5
I want to post or [tab]
guest
You may want to rate the tab now too:
select rating
Please do not post tabs as comments. Select "correction" instead!