Oops, an error
Loading. Please wait.

Williamsburg Tab

ver3
ver3

Whole song

Interactive

More versions @911Tabs.com
5,243 views 6 this week
3 commentsread comments
1 2 3 4 5
excellent!
x 4
Autoscroll
+/-
esc
set tempo
stop
Contributor
Difficulty
Tuning
novice
D A D G B E
WARNING: You are trying to view
                                    content from Ultimate-Guitar.com
                                    in an unauthorized application,
                                    which is prohibited.

                                    Please use an official Ultimate
                                    Guitar Tabs application for iPhone,
                                    iPad or Android to access legitimate
                                    chords, guitar, bass, and drum tabs
                                    from Ultimate-Guitar.com database.

                                    Type "ultimate guitar tabs" in Apple
                                    App Store's or Android Market's
                                    search to find the application.
Band: Armor for Sleep 
Song: Williamsburg
Album: Smile For Them
Tabbed By: art_fire2005@yahoo.com
My Myspace URL: www.myspace.com/art_fire2005

D-a-d-g-b-e

Intro: Guitar 1 PJ x2
e-----------------------------------------------------|
b-----------------------------------------------------|
g------11----11b-12p11-------------11---11b-12p11-----|
d--/12----12-----------14---/12-12----12----------14--|
a-----------------------------------------------------|
D-----------------------------------------------------|

e-----------------------------------------------------|
b-----------------------------------------------------|
g--/14-14-14-14----------/14-14-14-14-----------------|
d---------------14-12-----------------14b-------------|
a---------------------12------------------------------|
D-----------------------------------------------------|

Intro: Guitar 2 Ben x2
e------------------------------------------------------------------------|
b------------------------------------------------------------------------|
g--14-14-14-14-14-14------------------14-14-14-14-14-14------------------|
d--x--x--x--x--x--x--9-9-9-9-9-9-9-9--x--x--x--x--x--x---9-9-9-9-9-9-9-9-|
a--12-12-12-12-12-12-9-9-9-9-9-9-9-9--12-12-12-12-12-12--9-9-9-9-9-9-9-9-|
D--------------------9-9-9-9-9-9-9-9---------------------9-9-9-9-9-9-9-9-|

e--------------------------------------------------------------------|
b--------------------------------------------------------------------|
g--------------11-11-11-11-11-11-11-11-------------------------------|
d-8-8-8-8-8-8--x--x--x--x--x--x--x--x--5-5-5-5-5-5--8-8-8-8-8-8-8-8--|
a-8-8-8-8-8-8--9--9--9--9--9--9--9--9--5-5-5-5-5-5--8-8-8-8-8-8-8-8--|
D-8-8-8-8-8-8--------------------------5-5-5-5-5-5--8-8-8-8-8-8-8-8--|

Verse: Both Guitars x1
e----------------------------------------------|
b----------------------------------------------|
g-----------------------------------7--7--6----|
d--4----------4----------4----------0--0--0----|
a--0--5--4----0--5--4----4--5--7----x--x--x----|
D--0--0--0----0--0--0----4--4--4----9--9--9----|


e----------------------------------------------------------------|
b----------------------------------------------------------------|
g----------------------------------------------------------------|
d--4----------4----------4----------9-9-9-9-9-9-9-9--x-x-x-x-x---|
a--0--5--4----0--5--4----4--5--7----9-9-9-9-9-9-9-9--x-x-x-x-x---|
D--0--0--0----0--0--0----4--4--4----9-9-9-9-9-9-9-9--x-x-x-x-x---|

                                 pm ...............

Chorus: Guitar 1 PJ x1
e------------------------------------------------------------------------|
b------------------------------------------------------------------------|
g-11-11-11-11-11-11--6-6-6-6-4-4-4-4--11-11-11-11-11-11-6-6-6-6-4-4-4-4--|
d-x--x--x--x--x--x---x-x-x-x-x-x-x-x--x--x--x--x--x--x--x-x-x-x-x-x-x-x--|
a-9--9--9--9--9--9---4-4-4-4-2-2-2-2--9--9--9--9--9--9--4-4-4-4-2-2-2-2--|
D------------------------------------------------------------------------|

e--------------------------------------|
b--------------------------------------|
g-7-7-7-7-7-7-11-11-11-11-11-11-11-11--|
d-x-x-x-x-x-x-x--x--x--x--x--x--x--x---|
a-5-5-5-5-5-5-9--9--9--9--9--9--9--9---|
D--------------------------------------|

e---------------------------------------------|
b---------------------------------------------|
g--10-10-10-10-10-10-14-14-14-14-14-14-14-14--|
d--x--x--x--x--x--x--x--x--x--x--x--x--x--x---|
a--8--8--8--8--8--8--12-12-12-12-12-12-12-12--|
D---------------------------------------------|

e-----------------------------------------------------------------------|
b-----------------------------------------------------------------------|
g-11-11-11-11-11-11-6-6-6-6-4-4-4-4--11-11-11-11-11-11--6-6-6-6-4-4-4-4-|
d-x--x--x--x--x--x--x-x-x-x-x-x-x-x--x--x--x--x--x--x---x-x-x-x-x-x-x-x-|
a-9--9--9--9--9--9--4-4-4-4-2-2-2-2--9--9--9--9--9--9---4-4-4-4-2-2-2-2-|
D-----------------------------------------------------------------------|

e-----------------------------------------------------|
b-----------------------------------------------------|
g--7-7-7-7-7-7--11-11-11-11-11-11-11-11---------------|
d--x-x-x-x-x-x--x--x--x--x--x--x--x--x---5--4--8--9---|
a--5-5-5-5-5-5--9--9--9--9--9--9--9--9---5--4--8--9---|
D----------------------------------------5--4--8--9---|

Chorus: Guitar 2 Ben x1
e------------------------------------------------------------------------|
b------------------------------------------------------------------------|
g--14-14-14-14-14-14------------------14-14-14-14-14-14------------------|
d--x--x--x--x--x--x--9-9-9-9-9-9-9-9---x--x--x--x--x--x--9-9-9-9-9-9-9-9-|
a--12-12-12-12-12-12-9-9-9-9-9-9-9-9--12-12-12-12-12-12--9-9-9-9-9-9-9-9-|
D--------------------9-9-9-9-9-9-9-9---------------------9-9-9-9-9-9-9-9-|

e-----------------------------------------------------------------------|
b-----------------------------------------------------------------------|
g---------------11-11-11-11-11-11-11-11---------------------------------|
d--8-8-8-8-8-8--x--x--x--x--x--x--x--x---5-5-5-5-5-5--8-8-8-8-8-8-8-8---|
a--8-8-8-8-8-8--9--9--9--9--9--9--9--9---5-5-5-5-5-5--8-8-8-8-8-8-8-8---|
D--8-8-8-8-8-8---------------------------5-5-5-5-5-5--8-8-8-8-8-8-8-8---|

e------------------------------------------------------------------------|
b------------------------------------------------------------------------|
g--14-14-14-14-14-14------------------14-14-14-14-14-14------------------|
d--x--x--x--x--x--x--9-9-9-9-9-9-9-9--x--x--x--x--x--x---9-9-9-9-9-9-9-9-|
a--12-12-12-12-12-12-9-9-9-9-9-9-9-9--12-12-12-12-12-12--9-9-9-9-9-9-9-9-|
D--------------------9-9-9-9-9-9-9-9---------------------9-9-9-9-9-9-9-9-|

e-----------------------------------------------------|
b-----------------------------------------------------|
g---------------11-11-11-11-11-11-11-11---------------|
d--8-8-8-8-8-8--x--x--x--x--x--x--x--x---5--4--8--9---|
a--8-8-8-8-8-8--9--9--9--9--9--9--9--9---5--4--8--9---|
D--8-8-8-8-8-8---------------------------5--4--8--9---|


Intro x1

Chorus: Guitar 1 PJ x1
e------------------------------------------------------------------------|
b------------------------------------------------------------------------|
g-11-11-11-11-11-11-6-6-6-6-4-4-4-4--11-11-11-11-11-11--6-6-6-6-4-4-4-4--|
d-x--x--x--x--x--x--x-x-x-x-x-x-x-x--x--x--x--x--x--x---x-x-x-x-x-x-x-x--|
a-9--9--9--9--9--9--4-4-4-4-2-2-2-2--9--9--9--9--9--9---4-4-4-4-2-2-2-2--|
D------------------------------------------------------------------------|

e--------------------------------------|
b--------------------------------------|
g-7-7-7-7-7-7-11-11-11-11-11-11-11-11--|
d-x-x-x-x-x-x-x--x--x--x--x--x--x--x---|
a-5-5-5-5-5-5-9--9--9--9--9--9--9--9---|
D--------------------------------------|

e---------------------------------------------|
b---------------------------------------------|
g--10-10-10-10-10-10-14-14-14-14-14-14-14-14--|
d--x--x--x--x--x--x--x--x--x--x--x--x--x--x---|
a--8--8--8--8--8--8--12-12-12-12-12-12-12-12--|
D---------------------------------------------|

e------------------------------------------------------------------------|
b------------------------------------------------------------------------|
g-11-11-11-11-11-11-6-6-6-6-4-4-4-4--11-11-11-11-11-11--6-6-6-6-4-4-4-4--|
d-x--x--x--x--x--x--x-x-x-x-x-x-x-x--x--x--x--x--x--x---x-x-x-x-x-x-x-x--|
a-9--9--9--9--9--9--4-4-4-4-2-2-2-2--9--9--9--9--9--9---4-4-4-4-2-2-2-2--|
D------------------------------------------------------------------------|

e-----------------------------------------------------------------------|
b-----------------------------------------------------------------------|
g--7-7-7-7-7-7--11-11-11-11-11-11-11-11---------------------------------|
d--x-x-x-x-x-x--x--x--x--x--x--x--x--x---5--4--8--9--0--5--4--8--9--0---|
a--5-5-5-5-5-5--9--9--9--9--9--9--9--9---5--4--8--9--0--5--4--8--9--0---|
D----------------------------------------5--4--8--9--0--5--4--8--9--0---|


Chorus: Guitar 2 Ben x1
e-------------------------------------------------------------------------|
b-------------------------------------------------------------------------|
g--14-14-14-14-14-14------------------14-14-14-14-14-14-------------------|
d--x--x--x--x--x--x--9-9-9-9-9-9-9-9--x--x--x--x--x--x---9-9-9-9-9-9-9-9--|
a--12-12-12-12-12-12-9-9-9-9-9-9-9-9--12-12-12-12-12-12--9-9-9-9-9-9-9-9--|
D--------------------9-9-9-9-9-9-9-9---------------------9-9-9-9-9-9-9-9--|

e-----------------------------------------------------------------------|
b-----------------------------------------------------------------------|
g---------------11-11-11-11-11-11-11-11---------------------------------|
d--8-8-8-8-8-8--x--x--x--x--x--x--x--x---5-5-5-5-5-5--8-8-8-8-8-8-8-8---|
a--8-8-8-8-8-8--9--9--9--9--9--9--9--9---5-5-5-5-5-5--8-8-8-8-8-8-8-8---|
D--8-8-8-8-8-8---------------------------5-5-5-5-5-5--8-8-8-8-8-8-8-8---|

e-------------------------------------------------------------------------|
b-------------------------------------------------------------------------|
g--14-14-14-14-14-14------------------14-14-14-14-14-14-------------------|
d--x--x--x--x--x--x--9-9-9-9-9-9-9-9--x--x--x--x--x--x---9-9-9-9-9-9-9-9--|
a--12-12-12-12-12-12-9-9-9-9-9-9-9-9--12-12-12-12-12-12--9-9-9-9-9-9-9-9--|
D--------------------9-9-9-9-9-9-9-9---------------------9-9-9-9-9-9-9-9--|

e-----------------------------------------------------------------------|
b-----------------------------------------------------------------------|
g---------------11-11-11-11-11-11-11-11---------------------------------|
d--8-8-8-8-8-8--x--x--x--x--x--x--x--x---5--4--8--9--0--5--4--8--9--0---|
a--8-8-8-8-8-8--9--9--9--9--9--9--9--9---5--4--8--9--0--5--4--8--9--0---|
D--8-8-8-8-8-8---------------------------5--4--8--9--0--5--4--8--9--0---|


Bridge 1: Both Guitars
e--------------------------------------------------------------|
b--------------------------------------------------------------|
g--------------------------------------------------------------|
d--x-x-x-x-x-x-x-x-x-x-----------x-x-x-x-x-x-x-x-x-x-----------|
a--x-x-x-x-x-x-x-x-x-x--0-0-0-0--x-x-x-x-x-x-x-x-x-x--0-0-0-0--|
D--9-9-9-9-9-9-9-9-9-9--0-0-0-0--8-8-8-8-8-8-8-8-8-8--0-0-0-0--|

e----------------------------------------------------------------|
b----------------------------------------------------------------|
g----------------------------------------------------------------|
d--x-x-x-x-x-x-x-x-x-x-----------x-x-x-x-x-x-x-x-x-x-------------|
a--x-x-x-x-x-x-x-x-x-x--0-0-0-0--x-x-x-x-x-x-x-x-x-x--8-8-8-8----|
D--7-7-7-7-7-7-7-7-7-7--0-0-0-0--5-5-5-5-5-5-5-5-5-5--8-8-8-8----|

Bridge 2: Both Guitars
e--------------------------------------------------------------|
b--------------------------------------------------------------|
g--------------------------------------------------------------|
d--9-9-9-9-9-9-9-9-9-9-----------8-8-8-8-8-8-8-8-8-8-----------|
a--9-9-9-9-9-9-9-9-9-9--0-0-0-0--8-8-8-8-8-8-8-8-8-8--0-0-0-0--|
D--9-9-9-9-9-9-9-9-9-9--0-0-0-0--8-8-8-8-8-8-8-8-8-8--0-0-0-0--|

e----------------------------------------------------------------|
b----------------------------------------------------------------|
g----------------------------------------------------------------|
d--7-7-7-7-7-7-7-7-7-7-----------5-5-5-5-5-5-5-5-5-5-------------|
a--7-7-7-7-7-7-7-7-7-7--0-0-0-0--5-5-5-5-5-5-5-5-5-5--8-8-8-8----|
D--7-7-7-7-7-7-7-7-7-7--0-0-0-0--5-5-5-5-5-5-5-5-5-5--8-8-8-8----|

Bridge 3: Guitar 1 PJ
e----------------------------------------------------|
b--12-12-12-12-12-12-12-12-12-12-12-12-15-15-15-15---|
g--x--x--X--X--X--X--X--X--X--X--X--X--X--X--X--X----|
d--9--9--9--9--9--9--9--9--9--9--9--9--12-12-12-12---|
a----------------------------------------------------|
D----------------------------------------------------|

e----------------------------------------------------|
b--11-11-11-11-11-11-11-11-11-11-11-11-15-15-15-15---|
g--x--x--X--X--X--X--X--X--X--X--X--X--X--X--X--X----|
d--8--8--8--8--8--8--8--8--8--8--8--8--12-12-12-12---|
a----------------------------------------------------|
D----------------------------------------------------|

e----------------------------------------------------|
b--10-10-10-10-10-10-10-10-10-10-10-10-15-15-15-15/--|
g--x--x--X--X--X--X--X--X--X--X--X--X--X--X--X--X----|
d--7--7--7--7--7--7--7--7--7--7--7--7--12-12-12-12/--|
a----------------------------------------------------|
D----------------------------------------------------|

e---------------------------------|
b---------------------------------|
g---------------------------------|
d--5--4--8--9--0---5--4--8--9--0--|
a--5--4--8--9--0---5--4--8--9--0--|
D--5--4--8--9--0---5--4--8--9--0--|


Bridge 3: Guitar 2 Ben
e--------------------------------------------------------------------|
b--------------------------------------------------------------------|
g--------------------------------------------------------------------|
d--9-9-9-9-9-9-9-9-9-9-9-9-9-9-9-9--8-8-8-8-8-8-8-8-8-8-8-8-8-8-8-8--|
a--9-9-9-9-9-9-9-9-9-9-9-9-9-9-9-9--8-8-8-8-8-8-8-8-8-8-8-8-8-8-8-8--|
D--9-9-9-9-9-9-9-9-9-9-9-9-9-9-9-9--8-8-8-8-8-8-8-8-8-8-8-8-8-8-8-8--|

e--------------------------------------------------------------------|
b--------------------------------------------------------------------|
g--------------------------------------------------------------------|
d--7-7-7-7-7-7-7-7-7-7-7-7-7-7-7-7/--5--4--8--9--0---5--4--8--9--0---|
a--7-7-7-7-7-7-7-7-7-7-7-7-7-7-7-7/--5--4--8--9--0---5--4--8--9--0---|
D--7-7-7-7-7-7-7-7-7-7-7-7-7-7-7-7/--5--4--8--9--0---5--4--8--9--0---|

-------(REST)------- Guitar 1 PJ

Breakdown: Guitar 2 Ben
e---------------------------------------------------------------------|
b---------------------------------------------------------------------|
g---------------------------------------------------------------------|
d------4----------4-----------------9-9-9-9-9-9-9-9-9-9-9-9-9-9-9-9---|
a----5---4------5---4--------5--7---9-9-9-9-9-9-9-9-9-9-9-9-9-9-9-9---|
D--0----------0----------0-4--------9-9-9-9-9-9-9-9-9-9-9-9-9-9-9-9---|

Solo: Guitar 1 PJ x3
e--15-15-----14-14-----------------------------|
b----------------------14-14-15-15-14-14-------|
g-------14-14-----14-14-----------------14-14--|
d----------------------------------------------|
a----------------------------------------------|
D----------------------------------------------|

e--15-15-----14-14-----------------------------|
b----------------------14-14-15-15-14-14-------|
g-------14-14-----14-14-----------------14-14--|
d----------------------------------------------|
a----------------------------------------------|
D----------------------------------------------|

e--15-15-----14-14------------------------------|
b----------------------14-14-15-15-14-14--------|
g-------14-14-----14-14-----------------14-14/--|
d-----------------------------------------------|
a-----------------------------------------------|
D-----------------------------------------------|

e-------------12-12----------10-10-----|
b--------10-10----------10-10----------|
g--/12-12----------12-12----------11b--|
d--------------------------------------|
a--------------------------------------|
D--------------------------------------|

Chorus: Guitar 2 Ben x3


Bridge 3(is the outro) x1 Guitar 1 PJ
Bridge 3(is the outro) x1 Guitar 2 Ben

ENJOY!!!!! PLEASE RATE!!!!!
comments
print report bad tab
3 comments total.
-1 reply
Mcrmy12 wrote on May 31 2008, 07:54 pm

Ya this seems pretty right cuz this is pretty close to my guitar teachers interpretation

+1 reply
art_fire2005 wrote on June 1 2008, 02:36 pm

thankss dude

0 reply
BigTim72 wrote on September 13 2010, 10:40 pm

on the second part of the intro i think maybe it should be

e|------------------------------------
B|------------------------------------
G|14-14-----------------14-14---------
D|------14--14--12-------------14--14b
A|------------------12----------------
D|------------------------------------

I want to post or [tab]
guest
You may want to rate the tab now too:
select rating
Please do not post tabs as comments. Select "correction" instead!