Oops, an error
Loading. Please wait.

Scream Tab

ver1
ver1

Whole song

More versions @911Tabs.com
1,398 views 1 this week
no commentswrite comment
1 2 3 4 5
excellent!
x 1
add to favorites launch autoscroll
font size
0
reset
Autoscroll
+/-
esc
set tempo
stop
WARNING: You are trying to view
                                    content from Ultimate-Guitar.com
                                    in an unauthorized application,
                                    which is prohibited.

                                    Please use an official Ultimate
                                    Guitar Tabs application for iPhone,
                                    iPad or Android to access legitimate
                                    chords, guitar, bass, and drum tabs
                                    from Ultimate-Guitar.com database.

                                    Type "ultimate guitar tabs" in Apple
                                    App Store's or Android Market's
                                    search to find the application.
Scream  
Tabbed By Dino and Nick DiFranco                                    
Artful Dodger

     Intro                                                  
     E     E  E  E  E  E  E  E     E  E  E  E  E  E  E  E   
E||-----------2-----------0-----|--------4-----------0-----|
B||--------------2-----------0--|-----------5-----------0--|
G||--------2-----------1--------|-----4-----------2--------|
D||--4--------------2-----------|--6-----------4-----------|
A||-----------------------------|--------------------------|
E||-----------------------------|--------------------------|


  E  E  E  E  E  E  E  E     E  E  E  E  E  E  Q       E  E  E  E  E  E  E  E   
-----------0--------------|-----------0-------------|--------2-----------0-----|
--------0-----0-----------|--------0-----0----------|-----------2-----------0--|
-----2-----------2-----2--|-----2-----------2-------|-----2-----------1--------|
--------------------2-----|--2-----------------2----|--4-----------2-----------|
--------------------------|-------------------------|--------------------------|
--0-----------------------|-------------------------|--------------------------|


  E  E  E  E  E  E  E  E     E  E  E  E  E  E  E  E     E  E  E  E  E  E  Q     
--------4-----------0-----|-----------0--------------|-----------0-------------|
-----------5-----------0--|--------0-----0-----------|--------0-----0----------|
-----4-----------2--------|-----2-----------2-----2--|-----2-----------2-------|
--6-----------4-----------|--------------------2-----|--2-----------------2----|
--------------------------|--------------------------|-------------------------|
--------------------------|--0-----------------------|-------------------------|


                                                            3         3         
  E  E  E  E  E  E  E  E     H.           E  E     S S S  S E.  E  E  E.  Q     
--------------------------|---------------------|------------------5-----------|
-----------4--------------|--4------------L-----|-------------------------5----|
--------4-----4-----------|--4------------L-----|------2h4-2-------------------|
-----4-----------4-----4--|--4------------L-----|--2-4----------2-----2--------|
--2-----------------2-----|--2------------L-----|------------------------------|
--------------------------|---------------------|------------------------------|


  E  E  E  E  E  E  Q       Q    E   E  E  E.  E.   
--------------5----------|-------7s--9-----7---5---|
--------------------5----|-------5---7-----5---2---|
--------2----------------|-------------------------|
--2--4-----2-----2-------|-------------------------|
-------------------------|-------------------------|
-------------------------|--0-----------5----------|


  |--3--|  |--3--|  |--3--|  |--3--|     |--3--|  |--3--|  |--3--|          
  E  E  E  E  E  E  E  E  E  E  E  E     E  E  E  E  E  E  E  E  E  S S E   
--------2--------2--------4--------4--|--------5--------5--------4----2----|
-----2--------2--------2--------2-----|-----2--------2--------2-------2----|
--4--------4--------4--------4--------|--4--------4--------4---------------|
--------------------------------------|------------------------------------|
--------------------------------------|------------------------------------|
--------------------------------------|------------------------------------|


                 tr                            tr           
  E  E  E  E  E  E     E  E     E  E  E  E  E  E     E  E   
--0--2-----------0(2)--0-----|-----------------------------|
--0--3-----3--------------3--|-----------------0(2)--0-----|
-----2--2-----2--------------|-----------1--------------1--|
-----0-----------------------|--------------2--------------|
-----------------------------|--0-----2--------------------|
-----------------------------|-----0-----------------------|


                 tr                                                
                                   |--3--|  |--3--|  |--3--|  3    
  E  E  E  E  E  E     E  E     E  E  E  E  E  E  E  E  E  E  E.   
-----------------------------|--------------0-----------------0---|
-----------2-----2(3)--2-----|-----------------0------------------|
--------2-----2-----------2--|-----------1--------1--------1------|
--2--4-----------------------|--4-----2-----------------2---------|
-----------------------------|------------------------------------|
-----------------------------|-----0-----------------0------------|


  Verse 1                                                                 
  3       3   3   3   3   3   3   3      3   3   3   3   3   3   3   3    
  E.      E.  E.  E.  E.  E.  E.  E.     E.  E.  E.  E.  E.  E.  E.  E.   
----------------------0---------------|------------------0---------------|
------------------2-------2-------2---|--------------2-------2-------2---|
--------------2---------------2-------|----------2---------------2-------|
----------2---------------------------|------2---------------------------|
--0-----------------------------------|--0-------------------------------|
--------------------------------------|----------------------------------|


  3   3   3   3   3   3   3   3      3   3   3   3   3   3   3   3    
  E.  E.  E.  E.  E.  E.  E.  E.     E.  E.  E.  E.  E.  E.  E.  E.   
--------------0-------------------|--------------0-------------------|
------------------0---------------|------------------0---------------|
----------1-----------1-------1---|----------1-----------1-------1---|
------2-------------------2-------|------2-------------------2-------|
----------------------------------|----------------------------------|
--0-------------------------------|--0-------------------------------|


  3   3   3   3   3   3   3   3      3   3   3   3   3   3   3   3    
  E.  E.  E.  E.  E.  E.  E.  E.     E.  E.  E.  E.  E.  E.  E.  E.   
--------------2-------------------|------0-----------0-----------0---|
------------------2---------------|----------3-----------3-----------|
----------2-----------2-------2---|----------------------------------|
------4-------------------4-------|--0-----------0-----------0-------|
----------------------------------|----------------------------------|
--2-------------------------------|----------------------------------|


  3   3   3   3   3   3   3   3      3   3   3   3   3   3   3   3    
  E.  E.  E.  E.  E.  E.  E.  E.     E.  E.  E.  E.  E.  E.  E.  E.   
--4-----------5-----------4-------|------7-----------5---4-----------|
------5-----------5-----------5---|----------5---------------5-------|
----------4-----------4-----------|--4-----------4---------------4---|
----------------------------------|----------------------------------|
----------------------------------|----------------------------------|
----------------------------------|----------------------------------|


  3   3   3   3   3   3   3   3      3   3   3   3   3   3   3   3    
  E.  E.  E.  E.  E.  E.  E.  E.     E.  E.  E.  E.  E.  E.  E.  E.   
------------------0---------------|------------------0---------------|
--------------2-------2-------2---|--------------2-------2-------2---|
----------2---------------2-------|----------2---------------2-------|
------2---------------------------|------2---------------------------|
--0-------------------------------|--0-------------------------------|
----------------------------------|----------------------------------|


  3   3   3   3   3   3   3   3      3   3   3   3   3   3   3   3    
  E.  E.  E.  E.  E.  E.  E.  E.     E.  E.  E.  E.  E.  E.  E.  E.   
--------------0-------------------|--------------0-------------------|
------------------0---------------|------------------0---------------|
----------1-----------1-------1---|----------1-----------1-------1---|
------2-------------------2-------|------2-------------------2-------|
----------------------------------|----------------------------------|
--0-------------------------------|--0-------------------------------|


  3   3   3   3   3   3   3   3      3   3   3   3   3   3   3   3    
  E.  E.  E.  E.  E.  E.  E.  E.     E.  E.  E.  E.  E.  E.  E.  E.   
------0-----------0-----------0---|--------------0-------------------|
----------3-----------3-----------|------------------0---------------|
----------------------------------|----------1-----------1-------1---|
--0-----------0-----------0-------|------2-------------------2-------|
----------------------------------|----------------------------------|
----------------------------------|--0-------------------------------|


  3   3   3   3   3   3   3   3      ----                         
  E.  E.  E.  E.  E.  E.  E.  E.              Q.     E  H         
------------------0---------------|------||---0------0--0--------|
--------------2-------2-------2---|------||---2------2--2--------|
----------2---------------2-------|------||*--2------2--2--------|
------2---------------------------|------||*--2------2--2--------|
--0-------------------------------|------||---0------0--0--------|
----------------------------------|------||----------------------|


  Q.     Q    E  Q       Q.     E  H           Q.     Q    E  Q     
--0------0----0--0----|--4------4--4--------|--4------4----4--4----|
--2------2----0--0----|--5------5--5--------|--5------5----5--5----|
--2------2----1--1----|--6------6--6--------|--6------6----6--6----|
--2------2----2--2----|--6------6--6--------|--6------6----6--6----|
--0------0----2--2----|--4------4--4--------|--4------4----4--4----|
--------------0--0----|---------------------|----------------------|


  Q.     E  H           Q.     E  H           Q.     Q.     Q     
--2------2--2--------|--2------2--2--------|--0------------------|
--3------3--3--------|--3------3--3--------|--0------------------|
--2------2--2--------|--4------4--4--------|--1------------------|
--0------0--0--------|--4------4--4--------|--2------------------|
---------------------|--2------2--2--------|--2------------------|
---------------------|---------------------|--0------2------4----|


                           3   3    3   3   3    3   3    3    
  E  Q.     Q    Q         E.  E.   E.  E.  E.   E.  E.   E.   
-----------------------||------9------------9-----------------|
-----------------------||----------10-----------10-------10---|
----------------------*||--9------------9------------9--------|
----------------------*||-------------------------------------|
------------2----4-----||-------------------------------------|
--L--5-----------------||-------------------------------------|


  3   3    3   3   3    3   3    3      3   3   3   3   3   3   3   3    
  E.  E.   E.  E.  E.   E.  E.   E.     E.  E.  E.  E.  E.  E.  E.  E.   
------9------------9-----------------|----------------------------------|
----------10-----------10-------10---|------9-----------9---------------|
--9------------9------------9--------|----------9-----------9-------9---|
-------------------------------------|--9-----------9-----------9-------|
-------------------------------------|----------------------------------|
-------------------------------------|----------------------------------|


  3   3   3   3   3   3   3   3      3   3   3   3   3   3   3   3    
  E.  E.  E.  E.  E.  E.  E.  E.     E.  E.  E.  E.  E.  E.  E.  E.   
----------------------------------|--------------2-------------------|
------9-----------9---------------|------------------2---------------|
----------9-----------9-------9---|----------2-----------2-------2---|
--9-----------9-----------9-------|------4-------------------4-------|
----------------------------------|----------------------------------|
----------------------------------|--2-------------------------------|


  3   3   3   3   3   3   3   3      3   3   3   3   3   3   3   3    
  E.  E.  E.  E.  E.  E.  E.  E.     E.  E.  E.  E.  E.  E.  E.  E.   
------0-----------0-----------0---|------0-----------0---------------|
----------3-----------3-----------|----------0-----------0-------0---|
----------------------------------|----------------------------------|
--0-----------0-----------0-------|----------------------------------|
----------------------------------|----------------------------------|
----------------------------------|--0-----------0-----------0-------|


  3   3   3   3   3   3   3   3      3    3   3    3    3   3   3    3    
  E.  E.  E.  E.  E.  E.  E.  E.     E.   E.  E.   E.   E.  E.  E.   E.   
------0-----------0---------------|--9------------10------------9--------|
----------0-----------0-------0---|------10------------10-----------10---|
----------------------------------|-----------9-------------9------------|
----------------------------------|--------------------------------------|
----------------------------------|--------------------------------------|
--0-----------0-----------0-------|--------------------------------------|


  3    3    3   3    3   3    3   3      3   3   3    3   3   3   3   3    
  E.   E.   E.  E.   E.  E.   E.  E.     E.  E.  E.   E.  E.  E.  E.  E.   
------12------------10---9------------|-----------------------------------|
-----------10----------------10-------|--9-----------10-----------9-------|
--9-------------9-----------------9---|------9------------9-----------9---|
--------------------------------------|----------9------------9-----------|
--------------------------------------|-----------------------------------|
--------------------------------------|-----------------------------------|


  3    3   3   3    3   3   3   3      3   3   3   3   3   3   3   3    
  E.   E.  E.  E.   E.  E.  E.  E.     E.  E.  E.  E.  E.  E.  E.  E.   
------------------------------------|------0-----------0-----------0---|
------12-----------10---9-----------|----------3-----------3-----------|
-----------9----------------9-------|----------------------------------|
--9------------9----------------9---|--0-----------0-----------0-------|
------------------------------------|----------------------------------|
------------------------------------|----------------------------------|


  3   3   3   3   3   3   3   3      3   3   3   3   3   3   3   3      ---- 
  E.  E.  E.  E.  E.  E.  E.  E.     E.  E.  E.  E.  E.  E.  E.  E.          
--------------0-------------------|------------------0---------------|------|
------------------0---------------|--------------2-------2-------2---|------|
----------1-----------1-------1---|----------2---------------2-------|------|
------2-------------------2-------|------2---------------------------|------|
----------------------------------|--0-------------------------------|------|
--0-------------------------------|----------------------------------|------|


    Q.     E  H           Q.     Q    E  Q       Q.     E  H         
|---0------0--0--------|--0------0----0--0----|--4------4--4--------|
|---2------2--2--------|--2------2----0--0----|--5------5--5--------|
|*--2------2--2--------|--2------2----1--1----|--6------6--6--------|
|*--2------2--2--------|--2------2----2--2----|--6------6--6--------|
|---0------0--0--------|--0------0----2--2----|--4------4--4--------|
|----------------------|--------------0--0----|---------------------|


  Q.     Q    E  Q       Q.     E  H           Q.     E  H         
--4------4----4--4----|--2------2--2--------|--2------2--2--------|
--5------5----5--5----|--3------3--3--------|--3------3--3--------|
--6------6----6--6----|--2------2--2--------|--4------4--4--------|
--6------6----6--6----|--0------0--0--------|--4------4--4--------|
--4------4----4--4----|---------------------|--2------2--2--------|
----------------------|---------------------|---------------------|


  Q.     Q.     Q       E  Q.     Q    Q         W                 
--0------------------|-----------------------||--2----------------|
--0------------------|-----------------------||--2----------------|
--1------------------|----------------------*||--2----------------|
--2------------------|----------------------*||--4----------------|
--2------------------|------------2----4-----||--4----------------|
--0------2------4----|--L--5-----------------||--2----------------|


  W                   W                   H.           E  E   
--2----------------|--0----------------|--0---------------0--|
--3----------------|--2----------------|--0---------------2--|
--2----------------|--2----------------|--1---------------2--|
--0----------------|--2----------------|--2---------------2--|
-------------------|--0----------------|--2---------------0--|
-------------------|-------------------|--0------------------|


  W                   W                   W                 
--2----------------|--0----------------|--2----------------|
--3----------------|--2----------------|--2----------------|
--4----------------|--2----------------|--2----------------|
--4----------------|--2----------------|--4----------------|
--2----------------|--0----------------|--4----------------|
-------------------|-------------------|--2----------------|


  H        E  Q.        W                   W                 
--2-----------0------|--0----------------|--L----------------|
--3-----------0------|--2----------------|--L----------------|
--2-----------1------|--2----------------|--L----------------|
--0-----------2------|--2----------------|--L----------------|
--------------2------|--0----------------|--L----------------|
--------------0------|-------------------|-------------------|


  W                   W                   W                   W                 
--0----------------|--L----------------|--2----------------|--2----------------|
--0----------------|--L----------------|--2----------------|--3----------------|
--1----------------|--L----------------|--2----------------|--2----------------|
--2----------------|--L----------------|--4----------------|--0----------------|
--2----------------|--L----------------|--4----------------|-------------------|
--0----------------|--L----------------|--2----------------|-------------------|


  W                   W                   W                   W                 
--0----------------|--L----------------|--0----------------|--L----------------|
--0----------------|--L----------------|--2----------------|--L----------------|
--1----------------|--L----------------|--2----------------|--L----------------|
--2----------------|--L----------------|--2----------------|--L----------------|
--2----------------|--L----------------|--0----------------|--L----------------|
--0----------------|--L----------------|-------------------|-------------------|


  W                   W                   W                   W                 
--0----------------|--L----------------|--2----------------|--2----------------|
--0----------------|--L----------------|--2----------------|--3----------------|
--1----------------|--L----------------|--2----------------|--2----------------|
--2----------------|--L----------------|--4----------------|--0----------------|
--2----------------|--L----------------|--4----------------|-------------------|
--0----------------|--L----------------|--2----------------|-------------------|


  H.           E  E     W                     Q.     E  H         
--0---------------0--|--L----------------||---0------0--0--------|
--2---------------0--|--L----------------||---2------2--2--------|
--2---------------1--|--L----------------||*--2------2--2--------|
--2---------------2--|--L----------------||*--2------2--2--------|
--0---------------2--|--L----------------||---0------0--0--------|
------------------0--|--L----------------||----------------------|


  Q.     Q    E  Q       Q.     E  H           Q.     Q    E  Q     
--0------0----0--0----|--4------4--4--------|--4------4----4--4----|
--2------2----0--0----|--5------5--5--------|--5------5----5--5----|
--2------2----1--1----|--6------6--6--------|--6------6----6--6----|
--2------2----2--2----|--6------6--6--------|--6------6----6--6----|
--0------0----2--2----|--4------4--4--------|--4------4----4--4----|
--------------0--0----|---------------------|----------------------|


  Q.     E  H           Q.     E  H           Q.     Q.     Q     
--2------2--2--------|--2------2--2--------|--0------------------|
--3------3--3--------|--3------3--3--------|--0------------------|
--2------2--2--------|--4------4--4--------|--1------------------|
--0------0--0--------|--4------4--4--------|--2------------------|
---------------------|--2------2--2--------|--2------------------|
---------------------|---------------------|--0------2------4----|


  E  Q.     Q    Q         Q.     E  H           W                  
-----------------------||--0------0--0--------|--0----------------||
-----------------------||--2------2--2--------|--2----------------||
----------------------*||--2------2--2--------|--2----------------||
----------------------*||--2------2--2--------|--2----------------||
------------2----4-----||--0------0--0--------|--0----------------||
--L--5-----------------||---------------------|-------------------||




Duration Legend
---------------
W - whole
H - half
Q - quarter
E - 8th
S - 16th
T - 32nd
X - 64th
. - note dotted
|-n-|  - n-tuplets


Tablature Legend
----------------
L - tied note
x - dead note
g - grace note
(n) - ghost note
> - accentuded note
NH - natural harmonic
AH - artificial harmonic
TH - tapped harmonic
SH - semi harmonic
PH - pitch harmonic
h - hammer on
p - pull off
b - bend
br - bendRelease
pb - preBend
pbr - preBendRelease
brb - bendReleaseBend
\n/ - tremolo bar dip
\n - tremolo bar dive
-/n - tremolo bar Release up
/n\ - tremolo bar inverted dip
/n - tremolo bar return
-\n - tremolo bar Release down
S - shift slide
s - legato slide
/ -  slide into from below or out of upwards
\ -  slide into from above or out of downwards
~ - vibrato
W - wide vibrato
tr - trill
TP - tremolo picking
T - tapping
S - slap
P - pop
< - fade in
^ - brush up
v - brush down
comments
We did not receive enough feedback on this tab! Please rate:
print report bad tab
1 2 3 4 5
I want to post or [tab]
guest
You may want to rate the tab now too:
select rating
Please do not post tabs as comments. Select "correction" instead!