Oops, an error
Loading. Please wait.

94 Hours Tab

ver4
ver4
More versions @911Tabs.com
2,972 views 1 this week
8 commentsread comments
1 2 3 4 5
worth learning
x 9
Autoscroll
+/-
esc
set tempo
stop
Contributor
Hey! There's an official Ultimate Guitar app which is ideal
for learning songs when you're away from computer. Get the app
WARNING: You are trying to view
                                    content from Ultimate-Guitar.com
                                    in an unauthorized application,
                                    which is prohibited.

                                    Please use an official Ultimate
                                    Guitar Tabs application for iPhone,
                                    iPad or Android to access legitimate
                                    chords, guitar, bass, and drum tabs
                                    from Ultimate-Guitar.com database.

                                    Type "ultimate guitar tabs" in Apple
                                    App Store's or Android Market's
                                    search to find the application.
GUITAR I (CGCFAD)
GUITAR II (CGCFAD)

Intro GTR 1
|--------------------------------------------------------|
|--------------------------------------------------------|
|--------------------------------------------------------|
|0-3p0-7p0-3p0-5p0-3p0-2-3-2-2-3p0-7p0-3p0-5p0-3p0-5-5-5-|
|0---------------------------0---------------------3-3-3-|
|0-------------------------------------------------------|
                                                      
Intro GTR 2
|--------------------------------------------------------|
|--------------------------------------------------------|
|--------------------------------------------------------|
|0---------------------2-3-2-0---------------------3-3-3-|
|0---------------------2-3-2-0---------------------3-3-3-|
|0---------------------2-3-2-0---------------------3-3-3-|

GTR 1
|--------------------------------------------------------|
|--------------------------------------------------------|
|--------------------------------------------------------|
|0-3p0-7p0-3p0-5p0-3p0-2-3-2-2-3p0-7p0-3p0-5p0-3p0-5-5-5-|
|0---------------------------0---------------------3-3-3-|
|0-------------------------------------------------------|

GTR 2
|--------------------------------------------------------|
|--------------------------------------------------------|
|--------------------------------------------------------|
|0---------------------2-3-2-0-----------3-3-3--3-3-3--3-|
|0---------------------2-3-2-0-----------3-3-3--3-3-3--3-|
|0---------------------2-3-2-0-----------3-3-3--3-3-3--3-|

Verse GTRS 1 and 2 x4
|--------------------------------------------------------|
|--------------------------------------------------------|
|--------------------------------------------------------|
|0-3p0-7p0-3p0-5p0-3p0-2-3-2-2-3p0-7p0-3p0-5p0-3p0-5-5-5-|
|0---------------------------0---------------------3-3-3-|
|0-------------------------------------------------------|

Fill GTR 1
|-------------------------------------------------------------------|
|-------------------------------------------------------------0-----|
|-7p0-h10p0-h7p0-h9p0-7p0-h10p0-h7p0-h9p0-7p0-h10p0-h7p0-h9p0-0-----|
|----------------------------------------------------------------<3>|
|---------------------------------------------------------------0---|
|---------------------------------------------------------------0---|
PM                                                              -

GTR 2
|-------------------------------------------------------------------|
|-------------------------------------------------------------0-----|
|-------------------------------------------------------------0-----|
|-0----------(0)------------(0)-----------0----------------------<3>|
|-0----------(0)------------(0)-----------0---------------------0---|
|-0----------(0)------------(0)-----------0---------------------0---|
PM                                                              -

Lead GTR 1 x2
|------------------------------------------------------|
|----------------------------------------------0-------|
|-------------7p0-h10p0-h7p0-h9p0--------------0-------|
|-0--0-0--0-0---------------------0-0-0-0--0-0------<3>|
|-0--0-0--0-0---------------------0-0-0-0--0-0---0-----|
|-0--0-0--0-0---------------------0-0-0-0--0-0---0-----|
PM-----------                     ------------   -

Lead GTR 2x2
|------------------------------------------------------|
|----------------------------------------------0-------|
|-------------7p0-h10p0-h7p0-h9p0--------------0-------|
|-0--0-0--0-0---------------------0-0-0-0--0-0------<3>|
|-0--0-0--0-0---------------------0-0-0-0--0-0---0-----|
|-0--0-0--0-0---------------------0-0-0-0--0-0---0-----|
PM-----------                     ------------   -

(cont.) GTR 1
|------------------------------------------------------|
|----------------------------------------------0-------|
|-------------7p0-h10p0-h7p0-h9p0--------------0-------|
|-0--0-0--0-0---------------------0-0-0-0--0-0------<3>|
|-0--0-0--0-0---------------------0-0-0-0--0-0---0-----|
|-0--0-0--0-0---------------------0-0-0-0--0-0---0-----|
PM-----------                     ------------   -

(cont.) GTR 2
|------------------------------------------------------|
|----------------------------------------------0-------|
|-------------10p0h13p0h10p0h12p0--------------0-------|
|-0--0-0--0-0---------------------0-0-0-0--0-0------<3>|
|-0--0-0--0-0---------------------0-0-0-0--0-0---0-----|
|-0--0-0--0-0---------------------0-0-0-0--0-0---0-----|
PM-----------                     ------------   -

Lead GTR 2
|-----------------------------------------------------------|
|-----------------------------------------------------------|
|-----------------------------------------------------------|
|-0--0-0--0-0-------------------0-0--0--0-0--0-0-0--12\\----|
|-0--0-0--0-0-------------------0-0--0--0-0--0-0-0--12\\----|
|-0--0-0--0-0-------------------0-0--0--0-0--0-0-0--12\\----|
PM------------------------------------------------

Break GTRS 1 and 2
|-----------------------------------------------------------|
|-----------------------------------------------------------|
|-----------------------------------------------------------|
|-0--0-0--0-0--0-0-0-0--0-0---0--0-0--0-0--0-0-0-0--0-0-----|
|-0--0-0--0-0--0-0-0-0--0-0---0--0-0--0-0--0-0-0-0--0-0-----|
|-0--0-0--0-0--0-0-0-0--0-0---0--0-0--0-0--0-0-0-0--0-0-----|
PM-----------------------------------------------------

GTR 1
|-----------------------------------------------------------------|
|-----------------------------------------------------------------|
|-----------------------------------------------------------------|
|-0--0-0--0-0--0-0-0-0--0-0---0--0-0--0-0-----------------3h4h5h6-|
|-0--0-0--0-0--0-0-0-0--0-0---0--0-0--0-0---------3h4h5h6---------|
|-0--0-0--0-0--0-0-0-0--0-0---0--0-0--0-0-3h4h5h6-----------------|
PM---------------------------------------

GTR 2
|-----------------------------------------------------------|
|-----------------------------------------------------------|
|-----------------------------------------------------------|
|-0--0-0--0-0--0-0-0-0--0-0---0--0-0--0-0--0-0-0-0--0-0-----|
|-0--0-0--0-0--0-0-0-0--0-0---0--0-0--0-0--0-0-0-0--0-0-----|
|-0--0-0--0-0--0-0-0-0--0-0---0--0-0--0-0--0-0-0-0--0-0-----|
PM-----------------------------------------------------

GTR 1
|-------------------------------------------------------------------------|
|-------------------------------------------------------------------------|
|-------------------------------------------------------------------------|
|-0--0-0--0-0-----------------3h4h5h6-0--0-0--0-0-----------------3h4h5h6-|
|-0--0-0--0-0---------3h4h5h6---------0--0-0--0-0---------3h4h5h6---------|
|-0--0-0--0-0-3h4h5h6-----------------0--0-0--0-0-3h4h5h6-----------------|
PM---------------------------------------

GTR 2
|-----------------------------------------------------------|
|-----------------------------------------------------------|
|-----------------------------------------------------------|
|-0--0-0--0-0--0-0-0-0--0-0---0--0-0--0-0--0-0-0-0--0-0-----|
|-0--0-0--0-0--0-0-0-0--0-0---0--0-0--0-0--0-0-0-0--0-0-----|
|-0--0-0--0-0--0-0-0-0--0-0---0--0-0--0-0--0-0-0-0--0-0-----|
PM-----------------------------------------------------

GTR 1
|-------------------------------------------------------------------------|
|-------------------------------------------------------------------------|
|-------------------------------------------------------------------------|
|-0--0-0--0-0-----------------3h4h5h6-0--0-0--0-0---0---0---0-------------|
|-0--0-0--0-0---------3h4h5h6---------0--0-0--0-0---0---0---0-------------|
|-0--0-0--0-0-3h4h5h6-----------------0--0-0--0-0---0---0---0-------------|
PM---------------------------------------

GTR 2
|-----------------------------------------------------------|
|-----------------------------------------------------------|
|-----------------------------------------------------------|
|-0--0-0--0-0--0-0-0-0--0-0---0--0-0--0-0---0---0---0-------|
|-0--0-0--0-0--0-0-0-0--0-0---0--0-0--0-0---0---0---0-------|
|-0--0-0--0-0--0-0-0-0--0-0---0--0-0--0-0---0---0---0-------|
PM-----------------------------------------------------

Verse GTRS 1 and 2 x4
|---------------------------------------------------------------|
|---------------------------------------------------------------|
|---------------------------------------------------------------| 
|0-0---------------------------0---------------------10-10-10---|
|0-0-8---12---8---10---8-7-8-7-0-8---12---8---10---8-10-10-10---|
|0-0---0----0---0----0-------------0----0---0----0---10-10-10---|
PM--   -    -   -    -             -    -   -    -
 
Break GTR 1
|---------------------------------------------------------------|
|---------------------------------------------------------------|
|-------9-10-----------9-10-9--10--10--10-10-10--9--9--9-9-9----|
|0--0-0-x--x-0---0-0-0-x--x-x---x---x---x--x--x--x--x--x-x-x----|
|0--0-0-7--8-0---0-0-0-7--8-7---8---8---8--8--8--7--7--7-7-7----|
|0--0-0------0---0-0-0------------------------------------------|
PM  ---          -----

Break GTR 2
|---------------------------------------------------------------|
|---------------------------------------------------------------|
|-------9-10-----------9-10-9-----------------------------------|
|0--0-0-x--x-0---0-0-0-x--x-x--8--8--8-8-8--10--10--10-10-10----|
|0--0-0-7--8-0---0-0-0-7--8-7--8--8--8-8-8--10--10--10-10-10----|
|0--0-0------0---0-0-0---------8--8--8-8-8--10--10--10-10-10----|
PM  ---          -----

(cont.) GTR 1
|---------------------------------------------------------------|
|---------------------------------------------------------------|
|-------9-10-----------9-10-9--12-10-9-10----9------------------|
|0--0-0-x--x-0---0-0-0-x--x-x-------------12--------------------|
|0--0-0-7--8-0---0-0-0-7--8-7-----------------------------------|
|0--0-0------0---0-0-0------------------------------------------|
PM  ---          -----

(cont.) GTR 2
|---------------------------------------------------------------|
|---------------------------------------------------------------|
|-------9-10-----------9-10-9-----------------------------------|
|0--0-0-x--x-0---0-0-0-x--x-x--10--10--10-10-10--8--8--8-8-8----|
|0--0-0-7--8-0---0-0-0-7--8-7--10--10--10-10-10--8--8--8-8-8----|
|0--0-0------0---0-0-0---------10--10--10-10-10--8--8--8-8-8----|
PM  ---          -----

GTR 1
|---------------------------------------------------------------|
|---------------------------------------------------------------|
|-12-10-9-10----9----------------------------9-10-12--(12)------|
|------------12---12-10-9-10----------7-9-10--------------------|
|------------------------------7-9-10---------------------------|
|---------------------------------------------------------------|

GTR 2
|---------------------------------------------------------------|
|---------------------------------------------------------------|
|-------9-10-----------9-10-9-----------------------------------|
|0--0-0-x--x-0---0-0-0-x--x-x--8--8--8-8-8--10--10--10-10-10----|
|0--0-0-7--8-0---0-0-0-7--8-7--8--8--8-8-8--10--10--10-10-10----|
|0--0-0------0---0-0-0---------8--8--8-8-8--10--10--10-10-10----|
PM  ---          -----

GTR 1
|---------------------------------------------------------------|
|---------------------------------------------------------------|
|-12-10-9-10----9----------------------------9-10-12--(12)------|
|------------12---12-10-9-10----------7-9-10--------------------|
|------------------------------7-9-10---------------------------|
|---------------------------------------------------------------|

GTR 2
|---------------------------------------------------------------|
|---------------------------------------------------------------|
|-------9-10-----------9-10-9-----------------------------------|
|0--0-0-x--x-0---0-0-0-x--x-x--10--10--10-10-10--8--8--8-8-8----|
|0--0-0-7--8-0---0-0-0-7--8-7--10--10--10-10-10--8--8--8-8-8----|
|0--0-0------0---0-0-0---------10--10--10-10-10--8--8--8-8-8----|
PM  ---          -----

Lead GTRS 1 and 2
|---------------------------------------------------------------|
|---------------------------------------------------------------|
|---------------------------------------------------------------|
|-0-------(0)-------0-------(0)-------8-------(8)-------10----7-|
|-0-------(0)-------0-------(0)-------8-------(8)-------10----7-|
|-0-------(0)-------0-------(0)-------8-------(8)-------10----7-|


GTR 1
|-------------------------------------------------------------------|
|-------------------------------------------------------------------|
|---10-9----12-10p9----12---10-9----12-10p9----12---10-9----12-10-9-|
|--------10---------10-----------10---------10-----------10---------|
|-------------------------------------------------------------------|
|-------------------------------------------------------------------|

GTR 2
|-------------------------------------------------------------------|
|-------------------------------------------------------------------|
|-------------------------------------------------------------------|
|-0----------(0)----------0----------(0)----------8----------(8)----|
|-0----------(0)----------0----------(0)----------8----------(8)----|
|-0----------(0)----------0----------(0)----------8----------(8)----|

GTR 1
|-------------------------------------------------------------------|
|--------------------10---------------------------------------------|
|---------12-10p9-------12-10-9-------------------------------------|
|-----------------10------------------------------------------------|
|-------------------------------------------------------------------|
|-------------------------------------------------------------------|

GTR 2
|-------------------------------------------------------------------|
|-------------------------------------------------------------------|
|-------------------------------------------------------------------|
|------10----------7------------------------------------------------|
|------10----------7------------------------------------------------|
|------10----------7------------------------------------------------|

(cont.) GTR 1
|-------------------------------------------------------------------|
|-------------------------------------------------------------------|
|---10-9----12-10p9----12---10-9----12-10p9----12---10-9----12-10-9-|
|--------10---------10-----------10---------10-----------10---------|
|-------------------------------------------------------------------|
|-------------------------------------------------------------------|

(cont.) GTR 2
|-------------------------------------------------------------------|
|-------------------------------------------------------------------|
|-------------------------------------------------------------------|
|-0-0-0-------------0-0-0--0-0-0-----------------8-8-8--------------|
|-0-0-0-------------0-0-0--0-0-0-----------------8-8-8--------------|
|-0-0-0-------------0-0-0--0-0-0-----------------8-8-8--------------|
PM----------------------------------------------------

GTR 1
|-------------------------------------------------------------------|
|--------------------10---------------------------------------------|
|---------12-10p9-------12-10-9-------------------------------------|
|-----------------10------------------------------------------------|
|-------------------------------------------------------------------|
|-------------------------------------------------------------------|

GTR 2
|-------------------------------------------------------------------|
|-------------------------------------------------------------------|
|------------------14-12-10-9---------------------------------------|
|-10-10-10--7-7-7---x--x--x-x---------------------------------------|
|-10-10-10--7-7-7--12-10--8-7---------------------------------------|
|-10-10-10--7-7-7---------------------------------------------------|
PM---------------

End GTRS 1 and 2
|----------------|
|----------------|
|----------------|
|-0-------(0)----|
|-0-------(0)----|
|-0-------(0)----|

Pretty Sure This is it email me if you find somethin wrong....enjoy!
comments
print report bad tab
8 comments total. Showing first comments.
0 reply
rexxdoggy wrote on August 22 2005, 12:00 am

Gee thanks for stealing this from my profile in Mxtabs

0 reply
Xx_banx wrote on September 16 2005, 12:00 am

haha

0 reply
Has Many Issues wrote on October 9 2005, 01:33 pm

nice...

I want to post or [tab]
guest
You may want to rate the tab now too:
select rating
Please do not post tabs as comments. Select "correction" instead!